Galija - Digni Ruke

Transkripcija: Nikola Kolarovic (nikolak@bigfoot.com)


 PM - palm mute
 h - hammer on
 p - pull off

Uvod:
    PM.              PM.
E----------------|--------------------------|
H----------------|--------------------------|
G----------------|-7-----7--7-7-8-9-9-9-9-9-|
D-2--------2h4p2-|-7-7-7-7--7-7-8-9-9-9-9-9-|
A-0-0-0--0-0-----|-5-5-5-5--5-5-6-7-7-7-7-7-|
E----------------|--------------------------|

A
Da si na drugom kraju sveta
A
Da vozis neka kola lepa
      D     E          A
Da si prvi, ooo, da si prvi

A
Da rucas negde dole u Kini, 
A zube cackas u Karolini
Na Bahamima da imas vilu
Od mnogo zena da dobije kilu
      D     E          A
Da si prvi, ooo, da si prvi
        D     E          A
O da si prvi, ooo, da si prvi


         F#m            D
Ma digni ruku, digni obadve,
      E					     F#m E
Digni ruke od svega, nemas kartu ni do Pristine
         H		D         
Ma digni ruku, digni obadve,
      E					     F#m
Digni ruke od svega, nemas kartu ni do Pristine

(sve je isto)
Da si na drugom kraju sveta
Da vozis neka kola lepa
Na Bahamima da imas vilu
Od mnogo zena da dobije kilu
Da si prvi, ooo, da si prvi
O da si prvi, ooo, da si prvi

Ma digni ruku, digni obadve,
Digni ruke od svega, nemas kartu ni do Pristine
Ma digni ruku, digni obadve,
Digni ruke od svega, nemas kartu ni do Pristine

Ma digni ruku, digni obadve,
Digni ruke od svega, nemas kartu ni do Pristine
Ma digni ruku, digni obadve,
Digni ruke od svega, nemas kartu ni do Pristine
Ma digni ruku, digni obadve,
Ma digni ruku, digni obadve,
Digni ruke od svega, nemas kartu ni do Pristine


Korisceni akordi:
    A  E  D  F#m  H
E---0--0--2---2---2-
H---2--0--3---2---4-
G---2--1--2---2---4-
D---2--2--0---4---4-
A---0--2------4---2-
E------0------2-----

--------------------------------------------------------------
 Sve ispravke i dopune su dobrodosle! (nikolak@bigfoot.com)


***VERZIJA 2***
Transkripcija : Davor Logarc

SOLO:
E----------------------------------
H----------------------------------
G-----6--7---6---7-----6---7-------
D-3/7--7---7---7---3/7---7---5-6-7-
A----------------------------------
E----------------------------------

E-12-12--12p----12p----12p--12p--12p----12p
H-10-10--12p-10-12p-10-12p--12p--12p-10-12p
G------------------------------------------
D------------------------------------------
A------------------------------------------
E------------------------------------------

E------------------------------17p--17p--17p--17p-------14-------------------
H----------------------------------------------------17p---17-14----------17p
G-------14-14-16-14-16p-14---14---14---14---14---14--------------17-16-14----
D-12/14----------------------------------------------------------------------
A----------------------------------------------------------------------------
E----------------------------------------------------------------------------

* (17p)--svirati tako da Vam palac dodje na sami vrh trzalice!
* Za sve dopune i izmjene obratiti se na gitarsita_ze@hotmail.com