Galija - Kotor

Transkripcija: Garac (garac@beotel.yu)


Tema 2x Am G Em

Am                            Em    G   Am
Drsko je imala godina koliko Kotor vekova
Am                              Em     G Am
U sebe sam je sakrio,ko strogu tajnu cuvao
      F      G  Am       F       G   Am
Kako usnama miluje,kako prstima sapuce

U zemlju snova smo otisli,kupine poljupcima delili
Bila je kraljica dodira,moja radost nocima
Kako usnama miluje,kako prstima sapuce - 2x

ref:
 C                   G            E         Am/G
Carobnjak je bila,u kosi je krila opojne mirise
C                G            E
Stalno se secam,Kotoru vracam da opet osetim
     F       G  Am       F      G   Am
Kako usnama miluje,kako prstima sapuce - 2x


***VERZIJA 2***
Transkripcija: Senad Bajra - divljejagode_1@hotmail.com
Home         : www.2akordi.net

SOLO:
E|------------------------------------
B|------------------------------------
G|-------------5-7---------------5-7--
D|--0--5-7-8----------0--5-7-8--------
A|------------------------------------
E|------------------------------------

E|------------------------------------------
B|------------------------------------------
G|------------7-5---------------------------
D|--0--5-7-8------8-7--5---------5-7-8--5---
A|-----------------------8--5-8-------------
E|------------------------------------------

 * Toliko od mene mislim da ce nokom biti od koristi.