Generacija 5 - Dolazim Za 5 Minuta

Transkripcija: Damir Fific (dd3@iname.com)  
Home         : http://2akordi.net


album: ?
transkribcija: Damir Fific, The Netherlands, dd3@iname.com
ili budala@angelfire.com
info: fantasiican rock.Pjesma je u C-molu 
(C,D,D#,F,G,G#,A#).Jedino je intro u G-molu
(G,A,A#,C,D,D#,F). Cm i Gm se razlikuju samo u jednoj 
noti tako da modulacija nema drastican efekt.


figure 1:intro solo                               
                                 bend release
-8-10-11^10-8--10^8-6--8^6--6--------------------]
--------------------------8--8^6--6(8)-(6)-4-6-8-]
-------------------------------------------------]
-------------------------------------------------]
-------------------------------------------------]
-------------------------------------------------]

figure 2: rythm 

-----------------------
-----------------------
-----------------------
-----------------3---5-
--------3--5--6--------
--3--6-----------------

-intro solo (figure 1) se svira preko figure 2.

figure 3: verse                                 
              
----------------------------------------------
----------------------------------------------
----------------------------------------------
--------------5--X2--------------3-1-0--------X2
---5----5---5----------3---3---3-------3-1-0--
-3----3---3----------1---1---1----------------
----------------------------------------------

         figure 4: fill 1
              
-----------]-------------
-----------]-------------
------etc..]-------------
-----------]-------------
--5-5-5-5--]----1--------
--3-3-3-3--]-1-3--3------
-----------]-------------  


C5
Dolazim za pet minuta,
A#5
nemoj da bezis,ne budi dete.
F5
Samo cu skociti preko puta
G#5          A#5      C5  -fill 1(figure 4)
da kupim pice i cigarete.


Dolazim za 5 minuta,
evo ti novine, nesto potrazi 
ploce su tamo u vreloj sobi,
ja trcim dole, sama se snadji.(figure 5)

figure 5: fill 2         
 G#5      A#5      G5
-8-10-11-10-8--10-8-6-----
----------------------8---
--------------------------
--------------------------
--------------------------
--------------------------          

ref:
    C5 
    Neboj se, necu ti nista
    A#5
    treba mi, rame za plakanje. 
    C5
    Treba mi, skloniste od muke,
    C5      A#5    A# A#      C5   
    treba mi muzika  i stisak ruke.   

solo

-11-10-11-8---11-10-11-8--8-10-11-10-8--10-8-6
-----------8----------------------------------
----------------------------------------------
----------------------------------------------
----------------------------------------------
----------------------------------------------

--8-6--6-8------11-10-11-8--
------9-------------------8-
----------------------------
----------------------------
----------------------------
---------------------------- 

--11-10-11-8--8-10-11-10-8--10-8-6--8-6---6-
----------------------------------------8--8
--------------------------------------------
--------------------------------------------
--------------------------------------------
--------------------------------------------
--------------------------------------------

------------------------------
-6--6(8)-(6)-4-6-8------------
------------------------------
------------------------------
------------------------------
------------------------------
------------------------------ 

^= pull-off ili hammer-on