Generacija 5 - Povedi Me U Noc

Transkripcija: Ivan Djacic (djacic@yahoo.com)
Home         : http://2akordi.net


Intro: E H-A-G#m A H-C#m-H
       E H-A-G#m A G#m-H
Intro 2: C#m H/C# 2x

C#m      H           A
Tamno je nebo zemlju pokrilo
E        G#m7    C#m   (bas: G# H E)
Jesen je sumorna tu
C#m     H            A
Negde u meni dalekih obala
E      G#m         C#m
I vetrova severnih zvuk

< intro >

C#m    H           A
Slusam svemir kako govori
E    G#m     C#m
Nebo nije za nas
C#m      H          A
Tvoje mi ruke salju bogovi
E       H           A
Do mene tvoj dopire glas

ref:
E           G#m7   A        H
Povedi me u noc, i ostani u snu
E             G#m7   A           H    
Oprosti mi za sve, i budi samnom tu
C#m    G#m7   A          E
Kisu s oblaka prolio bih svu
F#m         G#m   A           H
Zaboravi na sve i budi samnom tu
C#m    G#m7   A          E
Kisu s oblaka prolio bih svu
F#m         G#m   A   H Hsus4 Hsus6  E
Zaboravi na sve i budi        samnom tu

< intro >
Hej, je, je...

< solo: E H A 3x >
< intro 2 >

Umoran trag u dugim nocima
Na tebi prepoznajem
Verujem samo tvojim ocima
Tebi se predajem

< ref >
< intro >
Hej, je, je...

kraj: E H-A-G#m E


H/C#  x4444x 
Hsus4 x2445x 
Hsus6 x2447x 

                 ^  ^
/--------------( *  * )---------------\
|=====================================|
|        < DjAkOn   StRaSnI >         |
|          djacic@yahoo.com           |
\-------------------------------------/

***VERZIJA 2***
Transkripcija: Chivija


Uvod i prelaz:
e|-----------------------|-------------------------|
H|-5---4\2---0--2--/5--4-|------4\2---0--2--/5--4--|
G|-6---4\2---1--2--/6--4-|------4\2---1--2--/6--4--|
D|-6---4\2---2--2--/6--4-|------4\2---2--2--/6--4--|
A|-4---------------------|-------------------------|
E|-----------------------|-0-----------------------|

Prelaz:
e|--------------------------------------------------|P
H|--------2----------2---------5-----------6--------|R
G|-------------------------------6------------7-----|E
D|-----4----------2---------7-----------8-------8---|L
A|---4----------2---------7-----------8-----------8-|A
E|-2---------4----------5-----------6---------------|Z

***VERZIJA 3***
Transkripcija: sasayu1983 (sasayu1983@yahoo.com)


Intro:
    E   H A  E  A  C#m H
e|--0------------------------||
h|--0---4p2--0--2---5h4------||
g|--1---4p2--1--2---6h4------||
d|--2---4p2--2--2---6h4------||
a|--2------------------------||
E|--0------------------------||

Bass lick :
	      C#m
e|----------|--4----||
h|----------|--5----||
g|----------|--6----||
d|----------|--6----||
a|-------7--|--4----||
E|--4--7----|-------||

Solo deonica:
e|----7-7---7-9-7--14-14h12----------|----------------------------------------|
h|-/9-----9-----------------12-14-12-|-----12-12h14-12----/9------------------|
g|-----------------------------------|-/13-------------------11p9-11p9-----9--|
d|-----------------------------------|---------------------------------9/11---|
a|-----------------------------------|----------------------------------------|
E|-----------------------------------|----------------------------------------|

e|------------------|--------------------------------------|-12-12-12p11-12h14-11/14--|
h|------------------|------------------9-9-9p7-7-7h8p7-8-8-|--------------------------|
g|--8---------------|--------------------------------------|--------------------------|
d|----9--7p6-7h9-2--|---------2-4/6-6----------------------|--------------------------|
a|------------------|---2-2h4------------------------------|--------------------------|
E|------------------|--------------------------------------|--------------------------|

e|-14-16-16h17-11--12-11-12-|--/9-7-------7-----||
h|--------------------------|-------9\7/9-------||
g|--------------------------|---------------9---||
d|--------------------------|-------------------||
a|--------------------------|-------------------||
E|--------------------------|-------------------||

Ako uocite neku gresku obavezno napisite komentar sa uocenom greskom mada
mislim da je solo potpuno OK!Srecno...

***VERZIJA 4***
Transkripcija: Nenad Stojanovic (nenad100janovic@yahoo.co.uk)


LEGEND
============================
| h - hamer on             |
| p - pull off             |
| / - slide up             |
| v - vibrato              |
| d - denf                 |  
| b - bend                 |
| r - release bended       |
| \ - slide down           |
| a - accent               |
============================

|solo:
|(2:30)
|--------------------------14-a14-12-11-12------------------------------------------------------|
|-------12-12----12h14-12v-----------------12v-14-------12-12h14-12v-------12-------------------|
|-11/13-------13----------------------------------11/13--------------11/13----13\11-9-11------9v|
|----------------------------------------------------------------------------------------9/11---|
|-----------------------------------------------------------------------------------------------|
|-----------------------------------------------------------------------------------------------|
|(2:39)
|----------------------------------------------------------------------12-12-11-12-14-a16v-14-16|
|--------------------------------------------9-9v-10-10/12-10-9-10-10v--------------------------|
|-8b9r8-----------------------------------------------------------------------------------------|
|-------9-a9\7-6-7/9---7-6-7-d6/7-d6-4-6-6v/----------------------------------------------------|
|--------------------7--------------------------------------------------------------------------|
|-----------------------------------------------------------------------------------------------|
|(2:53)
|-17\11-11v-12p11-12v---------------------------||
|---------------------12h14-12----------12------||
|------------------------------11-11/13----13\9-||
|-----------------------------------------------||
|-----------------------------------------------||
|-----------------------------------------------||