Gibonni - Cijele Noci Molio Sam Nebo

Transkripcija: Nermin Caluk (hilmo@bih.net.ba)
Home         : http://2akordi.net


str. bm G A
pre. G bm G A
ref. Bm G D A F# bm..
     Bm G D A F# G - bm G A, F# A7 bm

Nocas sam po nebu nad gradom kao po staklu
napisao prstom gdje je sad ona. A gdje li je
u noci bez zvijezda i bez mira i bez sna
sve me tjeralo opet da mislim na tebe
i kad mi je tesko - da mi bude jos teze
da bude teze jos

	Cijele noci molio sam nebo
	molio da posalje mi nekog
	jer po ovom blatu ja ne mogu
	ja ne mogu sam
	ja ne mogu sam

Nocas je stotinu kisa palo u srcu
i tekla je voda ulicom tvojom, To znam
kroz tisuce rijeci i kroz samo jedno ime
sve me tjeralo opet da mislim na tebe
i kad mi je tesko - da mi bude jos teze
da bude teze jos

-------------
int. = uvod
str. = strofa
ref. = refren
pre. = prelaz
end. = kraj
-------------


***VERZIJA 2***
Transkripcija: Igor Medarevic - mmarko@blic.net
Home         : www.2akordi.net


Uvod
E--------------------------------------------------
H--------------------------------------------------
G-----9----------10------9-9-------9-9-------------
D--7---12-10-9------10-12-----10-12---12-10--9-10--
A-------------12-----------------------------------
E--------------------------------------------------

E----------------------------------------------------------------
H----------------------------------------------------------------
G--9-9-9----------10------9-9-------9-10-9--9-10-----------------
D-------12-10-9------10-12-----10-12------12----12-12--10-9-7-/--
A--------------12------------------------------------------------
E----------------------------------------------------------------

Druga gitara svira isto to samo za oktavu vise


Solo
E---------------------------------------------------------------
H--12p10-10-10-12p10-10-10-12p10-10-10-12p10-10-10-12p10-10-10--
G---------------------------------------------------------------
D---------------------------------------------------------------
A---------------------------------------------------------------
E---------------------------------------------------------------

E--------------------------12b-12b-\------------------------------
H--12p10-10-10-12p10-10-10-----------------------------5--5----5--
G--------------------------------------------------5-7b-7b-7b--5--
D-----------------------------------x-x-9b-10-7--7----------------
A-----------------------------------------------------------------
E-----------------------------------------------------------------

E---------------------------------------------------------8--
H--5p3--3------------------------------------------8-10-12---
G-----5---2--0-------------------------------7-9-10----------
D--------------2-0-2-------------------7-9-10----------------
A--------------------------------7-8-10----------------------
E-------------------3--5-5-7-8-10----------------------------

E--12-8-10--8-----------------------------------------
H---------12-10-12-8-10-------------------------------
G----------------------10-12-9-10--9--9--9-10-9--9-\--
D--------------------------------12-10----------------
A-----------------------------------------------------
E-----------------------------------------------------

E----------------------------------------------------------------
H----------------------------------------------------------------
G--19p21p22-21p19--------21-19h17h16------17-15h14h12--------14--
D----------------22h21h19---------19h17h16-----------15h14h12----
A----------------------------------------------------------------
E----------------------------------------------------------------

E---------------------12b-\--
H----------------------------
G--10h9h7------9-9b-9--------
D--------10h9h7--------------
A----------------------------
E----------------------------

Ako postoje neke greske,stvarno sam u zurbi.Nadam se da oprastate

Pozdrav od Igora