Gibonni - Ispod Mog Pramca (tempera)

Transkripcija: Nermin Caluk (hilmo@bih.net.ba)
Home         : http://2akordi.net


int. em D C B em
str. Em C gm/F# B em
ref. E am B em, C D G (B)
Solo:c#m g#m A... A/G# B...em 

Ispod moga pramca jutro zapleteno u dubinama
Kao lice stranca naboralo se more u daljinama

Kao tempera kisa nebo oboji
Takve je boje srce moje
Od kad me ne volis

Tempera, kisa nebo oboji
Takve je boje srce moje
Od kad me ne volis

Kada krenu zime i nakupe se alge na koritu
I na moje ime u zaboravu tvome duboku

-------------
int. = uvod
str. = strofa
ref. = refren
pre. = prelaz
end. = kraj
-------------

***VERZIJA 2***
Transkripcija: Ljubisa Prica (ljprica@hotmail.com)


Intro(2x)

E|------3-1-1------5--3h5-----3---------------|
H|------1-1-1------5--5--5s3--3--3--3-2--3----|
G|----2-----------------------------2-2--2----|
D|--0----0-------------------------------0----|
A|-----------0h1s3---3--------1-----0---------|
E|--------------------------------------------|

E|---------------------------------------------------5-x-----
H|------------5-------5-x-----------------------6--5-5-x-----
G|------------5-------5-x-------7---------------7--6---x-----
D|------------7---------x-------7---------------5--5---x-----
A|------------5------5--x-------8---------------7--7---x-----
E|------------------------------6----------------------x-----
   Ispod moga pramca,jutro zapleteno u dubinama.    Kao lice


E|----------------------------------------------------4s5-----
H|-5---------5-x--4s5--5-x----------------------6-x-5-4s5-----
G|-5---------5-x--4s5--5-x------7---------------7-x-6-----6\--
D|-7-----------x----------------7---------------5-x-5---------
A|-5--------5--x--4s5--5-x------8---------------7-x-7---------
E|------------------------------6-----------------------------
   stranca,        naboralo se more u daljinama.


E|--------------------------------------------------------------------
H|-----7---7-x-3--x-2s3--3-x--------------5--6-x--6-x--5-x------------
G|-----7---7-x-3--x-2s3--3-x----6-----6-x-5--5-x--5-x--5-x-----7------
D|-----------x-3--x--------x----5-----5-x-5----x----x----x-----7------
A|-----5--5--x----x--------x----7-------x-7--5-x--6-x--5-x-----8------
E|-------------3--x-2s3--3-x----5----5--x----------------------6------
  Kao teeeempera          Kisa  nebo obo-ji           takve je boje


E|-------------------------------------------------------------
H|------------------------------5---5-x-5--5-x---5--------------
G|---7-x---9------9-x----------5----5-x-7--7-x-----6------------
D|---7-x---8------8-x---------7-------x------x-------5----------
A|-----x---10-------x--------8-----8--x------x-7-------7--------
E|--6--x---8-----8--x-------------------5--5-x------------------
      srce moje-   od kad me ne volis   


E|--------------------------------------------------------------------------------
H|--7--x-7--7-x--3--x-2s3--3-x---------------5-x--6s8-x--6-x--5-x-----------------
G|--7--x-7--7-x--3--x-2s3--3-x---6--x-6--6-x-5-x--5---x--5-x--5-x------7----------
D|-----x------x--3--x--------x---5--x-5--5-x-5-x------x----x-----------7----------
A|--5--x---5--x-----x--------x---7--x------x-7-x--5---x--5-x--5-x------8----------
E|---------------3--x-2s3--3-x---5--x---5--x---------------------------6----------
    Tempe--------ra         kisa nebo   obo--ji               takve je boje   


E|---------4s5-5-5-5--------------4s5-5-5-5-------------
H|---------4s5-5-5-5--6-5---------4s5-5-5-5--6-5---5----
G|---7-x--------------5-5--------------------5-5---5----
D|---7-x------------------------------------------------  2x intro   
A|-----x---2s3-3-3-3--3-3---------2s5-5-5-5--3-3---0----
E|--6--x------------------------------------------------
      srce moje            otkad me ne volis


Solo (pratnja): Hm7 Fm7 G Gm Hm7 Fm7 G Em7 A7#9 A7#9 G7(x 10 11 10 11 x)