Gibonni - Judi, Zviri I Bestije

Transkripcija: Miralem Batlak


Uvod:
e------------------------------|-------------------------------------|
B--10-12-12b-------------------|--10-12-12b-----------10------13-15b-|
G-9---------9-10-10-9-7--7-9-9-|-9---------9-10--10h12--10-12--------|
D----------------------10------|-------------------------------------|
A------------------------------|-------------------------------------|
E------------------------------|-------------------------------------|

e------------------------------|-------------------------------------|
B--10-12-12b-------------------|--10-12-12b-----------10------13-15b-|
G-9---------9-10-10-9-7--7-9-9-|-9---------9-10--10h12--10-12--------|
D----------------------10------|-------------------------------------|
A------------------------------|-------------------------------------|
E------------------------------|-------------------------------------|

Am                   D              F
Kojim imenom s kojom besidom bi ovu jubav krstija
         Am            D               F                 G
I ko bi normalan ko bi nasmijan ovakvu tebe trpija
      Am              C                     F            G    
I to triba znat ti dajes prazno tilo ali dusu nemoz dat
        Am            C                      F        
I nije lako bit i svetica i kurba sve po potribi
          G   E       Am
Kako se namisti u taj cas 

REF: 
      Am                     G              F
Medju jude medu zviri i bestimje me stavi lec
    Am                            G         F
Ako za te ja ne vridim nista ti lipo nimam rec
      C          F        Am                G
Medju jude medu zviri i bestimje me stavi lec
     Em          F               C         G      
Ako za te ja ne vridim nista ti lipo nimam rec
        Am
Nista lipo

Svojom mladosti svojom liposti nadi jesku za mene
Ipa bi ka skarpun bez daha u tvoj sic grubo ka gruba ric
Ha i to triba znat ti dajes prazno tilo ali dusu nemoz dat
I nije lako bit, i svetica i kurba sve po potribi
Kako se namisti u taj cas

REF:   

Medju jude medu zviri i bestimje me stavi lec
Ako za te ja ne vridim nista ti lipo nimam rec
Medju jude medu zviri i bestimje me stavi lec    2x   
Ako za te ja ne vridim nista ti lipo nimam rec
Nista lipo

Ni mrtav

***VERZIJA 2***
Transkripcija: Ganac (damir.krizanac@stud.uni-bayreuth.de)
        
         Am                            F
S kojim imenom, s kojom besidom, bi ovu jubav krstija
         Am                          F
I ko` bi normalan, ko` bi nasmijan, ovakvu tebe trpija
      Am              C                     F             G
I to triba znat, ti dajes prazno tilo, ali dusu nemoz dat
        Am            C                      F        
I nije lako bit, i svetica ni kurba, sve po potribi,
          G           Am
Kako se namisti u taj cas    

       Am          F          C             G
 Medu jude, medu zviri i bestimje, me stavi lec,
     Am          F               C          G
 Ako za te ja ne vridim nista ti lipo nimam rec

Svojom mladosti, svojom liposti nadi jesku za mene
Pa bi ka` skarpun bez traga u tvoj sic grubo ka gruba ric
I to triba znat, ti dajes prazno tilo, ali dusu nemoz dat
I nije lako bit, ni svetica ni kurba, sve po potribi
Kako se namisti u taj cas.....
________
Komentar: miky
          u prvoj strofi ti ide Am,F,C,G a ne samo Am i F ...

 
***VERZIJA 3***
Transkripcija: Adnan - adnan.vehabovic@yahoo.com

SOLO:
E||---------7--8-------------------------------------
H||--8--10----------5--6-----6--5-----------5--5-----
G||--------------------------------7--5--7-----------
D||--------------------------------------------------
A||--------------------------------------------------
E||--------------------------------------------------

E||---------7--8-----------------------------7-8--7--
H||--8--10----------5--6-----6--8--10--8--8----------
G||--------------------------------------------------
D||--------------------------------------------------
A||--------------------------------------------------
E||--------------------------------------------------

E||---------7--8-------------------------------------
H||--8--10----------5--6-----6--5-----------5--5-----
G||--------------------------------7--5--7-----------
D||--------------------------------------------------
A||--------------------------------------------------
E||--------------------------------------------------

E||---------7--8-------------------------------------
H||--8--10----------5--6-----6--8--10--8--8----13----
G||--------------------------------------------------
D||--------------------------------------------------
A||--------------------------------------------------
E||--------------------------------------------------