Gibonni - Oprosti

Transkripcija: Mrsa Vanja (vanja.mrsa@freesurf.ch)
Album        : Mirakul


G       D          G       D
malo je rec' da se prelija pjat
       G           D          A D      
kad se vonj od nevoje u zraku cuti
   G       D           G       D
Ja ne idem lec', da ne osjetim led
       G             D     A D
sa tvoje strane posteje di mucis.
A(bass A G          F# )
Di svako drzi svoju stranu
G     F#m  A
i ponosa i gluposti
A(basA   G         F#)   G
moglo bi bit da je lakse umrit
    Hm      A   G   D
nego judima rec OPROSTI

D             G       D
Say, say, say to each other
    A D 
I'm SORRY

Ja te ne mogu nac, takvu kakvu te znam
i to sto hoces od mene, ja ne razumin
ovo ovdje nisi ti, ni ovo ovdje nisan ja
to su neki furesti, bisni judi.

Oh, Boze da mi te prominit
Ili tebe ili sebe, isto je 
moglo bi bit da je lakse umrit
nego judima rec' OPROSTI 


***VERZIJA 2***
Transkripcija: Nermin Caluk (hilmo@bih.net.ba)


int i str:  

     D/g D     G  D/a   D/g  D     A A/d     D
E I--3---2-----7---5-----3---2-----------0-----
H I--3---3-----8---3-----3---3-----2--3------3-
G I--2---2-----0---2-----2---2-----2---------2-
D I--0---0-----0---0-----0---0-----2---------0-
A I--------------------------------0-----------


ref:  A G D/f#, bm/d D A (i svako drzi...)
      A G D G, bm/e A G D (moglo bi bit..)
      D em f#m G, bm/e A G D (moglo bi bit...)
solo: D/g D...
end:  D bm G A D (say, say...)

Say, say to each other I'm sorry

Malo je rec' da se prelija pjat
kad se vonj od nevoje u zraku cuti
ja ne idem lec' da ne osjetim led 
s tvoje strane postelje di nociš

	i svako drzi svoju stranu 
	ponosa i gluposti
	moglo bi bit da je lakše umrit
	nego ljudima rec oprosti

ja te ne mogu nac takvu kakvu te znam
i to sta hoces od mene ja ne razumim
i ovo vodje nisi ti ovo ovdje nisam ja
to su neki furesti bisni ljudi

	o Boze da mi te prominit
	ili tebe ili sebe - isto je
	moglo bi bit da je lakše umrit
	nego ljudima rec oprosti


NAPOMENA:

    D/f#  bm/d
E I--2-----x-
H I--3-----3-
G I--2-----4-
D I--0-----0-
A I--x-----2-
E I--0-----x-

u refrenu se dva puta ponavlja tekst "moglo bi bit'..." ali
nisu isti akordi oba puta iako isto zvuci, u tekst nisam 100%
siguran - korekcije dobrodosle


-------------
int. = uvod
str. = strofa
ref. = refren
pre. = prelaz
end. = kraj
-------------


***VERZIJA 3***
Transkripcija: Hrvoje (hrvoje.baric1@public.carnet.hr)
Album        : Mirakul


NAPOMENA: Posto na stranici vec ima tekst i akordi,
          nisam pisao, nego sam samo dodao ovo...

Evo intro kako ga ja sviram...ova prazna A zica se
moze svirat, al i ne mora, a cak se moze i E(debela:)
spustit na D pa se i ona svira kao bas(drugi red),ali
to je ok samo za akusticnu i kod A akorda se spustena
zica ne svira...


    G   D         G   D        G   D      A        D
E |--3---2-----|--7---5-----|--3---2-----|0-----0--2--|
H |--3---3-----|--8---7-----|--3---3-----|2--3-----3--|
G |--2---2-----|--7---7-----|--2---2-----|2--------2--|
D |--0---0-----|--0---0-----|--0---0-----|2--------0--|
A |--0---0-----|--0---0-----|--0---0-----|0--------0--|
E |------------|------------|------------|------------|

    G   D         G   D        G   D      A        D
E |--3---2-----|--7---5-----|--3---2-----|0-----0--2--|
H |--3---3-----|--8---7-----|--3---3-----|2--3-----3--|
G |--2---2-----|--7---7-----|--2---2-----|2--------2--|
D |--0---0-----|--0---0-----|--0---0-----|2--------0--|
A |--0---0-----|--0---0-----|--0---0-----|0--------0--|
D |--0---0-----|--0---0-----|--0---0-----|---------0--|

Sad onaj solo, doduse ne original, al dobro zvuci, malo
je preuredjen, jer ja to obicno sam sviram, pa nemam
pratnju...

...prva dva takta(ne valja ritmicki, al...)

    G    D                  G                 D
E |------3-2-------2-3-5-7-|5~7~5-----5~7~5-4-5----5|
H |-----3--3------3--------|------------------------|
G |----2---2-----2---------|------------------------|
D |---0---------0----------|0-----------------------|
A |------------------------|------------------------|
E |------------------------|------------------------|

...druga dva takta...

   G                D          A          D
E |-10---------------------|------------------------|
H |----10-8-7~8~7-5--------|---------5--------------|
G |-----------------7------|--6--6-7---6-7----------|
D |-0----------------------|-------------0----------|
A |------------------------|--0---------------------|
E |------------------------|------------------------|


E, to vam je otprilike to...sad nazalost nemam snimku pa
da provjerim koliko je to (ne)tocno, al dobro zvuci...
ispricavam se zbog pogresaka, al to mi je tek prvi tab
pa jos ucim...ako imate komentara, slobodno se
javite...znam da ne valja ritmicki:)))...i neznam kak da
napisem triler, pa sam stavio ~...