Gibonni - Ozdravi Mi Ti

Transkripcija: Nermin Caluk (hilmo@bih.net.ba)
Home         : http://2akordi.net


str. F# C# d#m (C#) B C# B d#m fm F#
     F# C# c#m B B/C# C# F#
ref. f#m fm d#m C# B F#
     B Bbm B (B/C#) C#
     (B F# C# B F# )

Ja ti donosim smijeh na napuklim usnama
Dug sam presao put da ga dijelimo na pola
Pa se spustam na pod kraj tvojega jastuka
A ti mi zelju pokazi da ustaces ko nekada

	Samo ozdravi mi ti, to je sve sto sam od Neba trazio
	I svaki korak tvoj sto ga napravis ja bi usnama nagradio
	Samo ozdravi mi ti, to je sve sto sam od Neba trazio
	I svaki osmijeh tvoj sto mi poklonis kao zastavu bih razvio
	Samo ozdravi mi ti...

Ja ti donosim smijeh na napuklim usnama
Da te zagrnem s njim u prohladnim nocima....

-------------
int. = uvod
str. = strofa
ref. = refren
pre. = prelaz
end. = kraj
-------------

***VERZIJA 2***
Transkripcija: Davor Tomic (tomicd2@tiger.uofs.edu)
Home         : http://academic.scranton.edu/student/TOMICD2
 


/ = kliznuti niz zicu 

Uvod: 4x                                  Mali prelaz: 
e-------0--------------0-----0-----0----  --------------- 
H-------0-0-5-4-5------5-----5-----5----  --------------- 
G----2----2-4-2-4-----------------------  --------------- 
D-------------------2-----2-----2-----2-  6-7-6-4-------- 
A---------------------------------------  ---------6-7--- 
E--0------------------------------------  -------------7- 

      E                 H             C#m  C#m/H 
Ja ti donosim smijeh na napuklim usnama 
e---4/7---------------------------
H-------5-7-5-5-------5-5-5-5-5--- 
G-----------------4-6-------------

        A                H        H/A     E 
dug sam presao put da ga dijelimo na pola 
e------------------------------------------ 
H--4-5-7--4-5-7--4-5-7--4-5-7-7/9-7-5-4-5-- 
G------------------------------------------ 

      E                   H             D7  C#m7 
pa se spustam na pod kraj tvojega jastuka 
e---9-9-9-9-7-5-5/4-5-- 
H----------------------
G---------------------- 

        H               A             H    E 
a ti mi zelju pokazu da ustat ces k'o nekada. 

--prelaz-- 
e--------------------------- 
H--12--9-10-9---------------
G--------------11-9-8-------
D----------------------11--- 

                  C#m  H                            
I samo ozdravi mi ti 
                     A         E 
to je sve sto sam od neba trazio 
              A                  E 
i svaki korak tvoj sto ga napravis 
       A        H 
ja bih usnama nagradio. 

                C#m    H 
Samo ozdravi mi ti 
                     A         E 
to je sve sto sam od neba trazio 
  A 
i svaki osmijeh tvoj 
              E 
sto mi poklonis 
    A                H 
kao zastavu bih razvio 
                     E 
al' samo ozdravi mi ti...   -- uvodni solo-- 

I ja cu cekati na tebe 
kada ustanes i kada krenes 
zelim vidjeti tvoj smijeh... 
I zelim da se ponosim sa tobom 
zelim se pomoliti sa tobom 
kada prepoznas pobjedu u sebi 
i pobjedu u meni 
kada ozdravis mi ti.