Gibonni - Sa Mnom Ili Bez Mene

Transkripcija: Nermin Caluk (hilmo@bih.net.ba)
Home         : http://2akordi.net


str. D (c#) bm G D A bm, G A bm
     D (c#) bm G A B
ref. E c#m A B

Dobrodosla si u moje stihove
i bas je lijepo sto si tu
al znaj da sad po prvi put
ja se osjecam nepozvan
bas kao nepozvan

Ma hajde pricaj mi
sto se promjenilo
il samo cini mi se da
nocas ides zauvijek
u neki drugi svijet
u kojem nisam ja

        Ti ides dalje, sa mnom ili bez mene
        zar je svejedno, sa mnom ili bez mene
        i kazes proce ova noc ko i druge prije nje
        sa mnom ili bez, ili bez mene

Dobrodosla si u moje stihove
i svakim trenom ponovo
ne zelim pricati o tom
kada vidim koliko te
nisam imao...

Solo: c#m a B G# C c#m
-------------
int. = uvod
str. = strofa
ref. = refren
pre. = prelaz
end. = kraj
-------------


***VERZIJA 2***
Transkripcija: Kornelije Sajler (xajler@yahoo.co.uk)
Bm=Hm


UVOD (Live)

Lagani P.M. (Stopano)
    C5
e|---------------------|---------------------|
H|---------------------|---------------------|
G|--5-4-5-4-5-5-4-5-4--|--5-4-5-4-7-7-5-4-5--|
D|--5-5-5-5-5-5-5-5-5--|--5-5-5-5-5-5-5-5-5--|
A|--3-3-3-3-3-3-3-3-3--|--3-3-3-3-3-3-3-3-3--|
E|---------------------|---------------------|
     A5
e|---------------------|---------------------|
H|---------------------|---------------------|
G|--5-4-5-4-5-5-4-5-4--|--5-4-5-4-7-7-5-4-5--|
D|--5-5-5-5-5-5-5-5-5--|--5-5-5-5-5-5-5-5-5--|
A|--0-0-0-0-0-0-0-0-0--|--0-0-0-0-0-0-0-0-0--|
E|---------------------|---------------------|
    F5                    G5
e|---------------------|---------------------|
H|---------------------|---------------------|
G|--5-4-5-4-5-5-4-5-4--|--5-4-5-4-7-7-5-4-5--|
D|--3-3-3-3-3-3-3-3-3--|--5-5-5-5-5-5-5-5-5--|
A|---------------------|---------------------|
E|---------------------|---------------------|
   C5                    F5  G5  C5
e|---------------------|--------------------|
H|---------------------|--------------------|
G|--5-4-5-4-5-5-4-5-4--|---------5----------|
D|--5-5-5-5-5-5-5-5-5--|-3---5---5----------|
A|--3-3-3-3-3-3-3-3-3--|-3---5---3----------|
E|---------------------|-1---3--------------|


      C               G    C  G  Am
Dobro dosla si u moje stihove
                       Amsus4 Am
I bas je lijepo sto si tu
    Dm
Ali znaj po prvi put
F          G       Am
Ja se osijecam nepozvan
        F G C
Bas kao nepozvan
         C                G        C   G  Am
Ma hajde pricaj mi sto se promijenilo
               Amsus4 Am
Jer cini mi se da
      Dm
Nocas idem zauvijek
  F          G
U neki drugi svijet
        A
U kojem nisam ja


        D             D/A       D
Ti ides dalje sa mnom ili bez mene
       Bm               Bm/A      Bm
Zar je svejedno sa mnom ili bez mene
        G
I kazes proce ova noc ko i druge prije nje
A
Sa mnom ili bez mene


      C               G    C  G  Am
Dobro dosla si u moje stihove
                    Amsus4 Am
I svakim trenom ponovo
         Dm
Ne zelim pricati o tom
     F         G           A
Tada vidim koliko te nisam imao


        D             D/A       D
Ti ides dalje sa mnom ili bez mene
       Bm               Bm/A      Bm
Zar je svejedno sa mnom ili bez mene
        G
I kazes proce ova noc ko i druge prije nje
A
Sa mnom ili bez mene


AKORDI:
 Amsus4 ili Amsus4   D/A ili D/A  Bm/A
e|-----------5--------0-------5---(2)-|
H|--3--------5--------2-------5----2--|
G|--2--------7--------2-------6----2--|
D|--2--------7--------0-------7----2--|
A|--0--------7----------------5----2--|
E|-----------5------------------------|