Gibonni - Tajna Vjestina

Transkripcija: Adis Salihbegovic (Aran@bih.net.ba)


Ritmicki nije dobro napisano(zato nije u gp3 formatu) jer nisam bas imao puno
vremena ali mislim da je tonski ok

Uvodni solo:
E||-------------------------------------------------------------------|
B||----------5/---8---------------------------------------------------|
G||--5h---7------------9-7h9h7h5/-7/-9-----5h-4-----------------------|
D||----------------------------------------------5--------------------|
A||-------------------------------------------------7/8---------------|
E||-------------------------------------------------------------------|

E||--------------------------------------------------------------------------------||
B||--------5/-8---8h10h8-----------------------------------------------------------||
G||--5h-7----------------9--7h9h7h5/-9----4h5-4h5-------------2-5---4h5h4h2h0h2----||
D||-----------------------------------------------5-------2-3----------------------||
A||--------------------------------------------------7-8---------------------------||
E||--------------------------------------------------------------------------------||

Zadnjih 6 tonova se svira tako da se trzalicom okine prvi ton a ostalih 5 se sviraju
samo sa lijevom rukom.

Pratnja za solo: Am F G Am C F G D Am F G Am C F G Am

Uvodno razlaganje:
E||------5------5-------5-----5-------------5------------5-----5----||
B||------5------5-------5-----5-----------6---6---6------5-----5----||
G||----5------5---5-----5---5---5-------5-------5--------5---5---5--||
D||-----------------------------------7-----------------------------||
A||--0-----------------------------5-----------------2/3------------||
E||--------4--------2/3---2--------------------------------3--------||
   Postoji....

Akordi vec postoje na stranici ali i na daljnjem dijelu ima nesto malo caka
Npr:

E||-------------0--------------------------||
B||---------1-----1---1-----------1--------||
G||-----0h2---2-----2---------0------0---0-||
D||--3--------------------0h2---2------2---||
A||---------------------3------------------||
E||----------------------------------------||
   Ja plovim...                                      ..itd

Inace sve ja ovo prozeto malehnim solazama koje mi mrsko skidat.
Drugi solo je varijacija prvog sa malim izmjenama na kraju.
Zadnji solo je pretezak pa ko ga skine nek se javi  ;-)
Toliko.
Kritike pozeljne!


***VERZIJA 2***
Transkripcija: Nermin Caluk (hilmo@bih.net.ba)


int:

     am    F/g    G   am   em/c  F          G         dm
E I------0-3----0-----0-------------------------------------
B I--1-3----------3-1------1---------------1-0----0-1-3-----
G I--------------------------0--------(2)-------------------
D I----------------------------2-3--------------------------

D I--0-----0-------- (prelaz na basu)
A I----3-2-----3-0--

     am     F/g  G     am   em/c      F     G        am
E I------0-3-5---------0------------------------------------
B I--1-3---------3-3-1------1-0-1------------------1--------
G I-------------------------------0-0----------0-2----------
D I-----------------------------------2-3----2--------2-0-2-


str:
    am  am7 am/f#  am/d       dm dm/e G/e  G
E I--0---0---3---2---0----I----1---0---0--------
B I--1---1---1-------1----I----3---3---0---3----
G I--2---2---2-------2----I----2---2---0---0----
D I--2---2---2-------2----I----0---0---0---0----
A I--0--------------------I---------------------
E I------3---2-------1----I------------3---3----

prvi dio strofe ("postoji tajna vjestina...") se svira tako sto stalno drzis
am, a druge tonove hvatas malim prstom i palcem (bas). zadnji akord tog dijela
je oznacen kao am/d sto je ispravno jer u tom trenutku basista okida ton D
ali na akusticnoj gitari (sa obicnim stimom) možemo bez vece greske svirati F


pre: F C/g G (g#) am am7, F/g Bb E am (a-b-c)
ref: dm G C (b) am (a-b-c),
     dm G C (b) am G F E E7
end: am F G am, em F G dm (na kraju bez dm)


Postoji tajna vjestina biti jedno za drugo
i kad potamni zlatnina i cutim da je gotovo

        ja plovim miran
        i cuvam to sto imam
        tu varku da sam za te ipak drukciji od svih - bivsih

                jos ti se radujem
                a nemam zasto biti ponosan na nas
                jos ti se radujem
                i svoje tajne tebi govorim na glas
                ko da sve je s nama isto kao prije
                ...a nije

Postoji tajna vjestina srcu se pokoriti
i to su price za djecu u koje ne želim sumnjati

        i plovim miran
        bas kao da jos te imam
        i lažem da sve je dobro i da bolje ne moze - a moze

                jos ti se radujem...


korekcije dobrodosle :)

-------------
int. = uvod
str. = strofa
ref. = refren
pre. = prelaz
end. = kraj
-------------


***VERZIJA 3***
Transkripcija: Beeman


INTRO:
:----------------------------------------------
:---5-----8-6----------------------------------
:-7---7/9------7-5-3-5/7---5-7----------5h7-5--
:------------------------------7-9--9-7--------
:----------------------------------------------
:----------------------------------------------

:-----------------------------------------------------------
:---5-----8-6h5---------------------------------------------
:-7---7/9-------7-5-3-5/7--7h4-5----------------------------
:---------------------------------5h3-4--5-2h3-5-3--2-0-2---
:-----------------------------------------------------------
:-----------------------------------------------------------