Gibonni - Tebe Nisam Bio Vrijedan

Transkripcija: Nermin Caluk (hilmo@bih.net.ba)
Home         : http://2akordi.net


str. G D C G D em C
ref. G D em E am bm7 C D
     G D em E am D (CHAG)

Priznaj, ja nisam bio Bog zna sto
prema tebi ni pravedan ni blag

Priznaj, koliko truda uzalud
da u meni prepoznas svoje ljubav bar trag

        Dal' bi te rastuzio kad rekao bih da
        nije te zasluzio covjek ko ja
        kao ja

        Dal' bi te rastuzio kad rekao bih da
        tebe nisam bio vrijedan
        nisam ja...

Boze, noc mi nosi kajanje
a ja sam preslab da ponesem taj kriz

(Za nas oboje, za nas...
Za tebe - i mene...)

-------------
int. = uvod
str. = strofa
ref. = refren
pre. = prelaz
end. = kraj
-------------


***VERZIJA 2***
Transkripcija: Josip Susic (josip_susic@yahoo.com)
Home         : http://2akordi.net
Album        : Noina Arka


Bas lipa solazica, ovo je prvi dio. Jedna od najlipsih Gibonnijevih pisama.

~~~ - vibrato
br - bend-release
b - bend
p/h - hammer on/pull off
x - "mrtva" nota

------------------------15-------------15--17-17b-17br-17p15-17-15--------
-----15~~~-15br---17------15br~~---15b------------------------------------
--16----------------------------------------------------------------------
--------------------------------------------------------------------------
--------------------------------------------------------------------------
--------------------------------------------------------------------------

--17brbr~~---17b----15-19p17p17-----17-------------------------------------
-----------------17--------------17----17-17br--r17p15h17~--15br-r15p13h15~
---------------------------------------------------------------------------
---------------------------------------------------------------------------
---------------------------------------------------------------------------
---------------------------------------------------------------------------

--x-17br-17b-17p15-17-15~~-------------------------------------------------
---------------------------------------------------------------------------
---------------------------------------------------------------------------
---------------------------------------------------------------------------
---------------------------------------------------------------------------
---------------------------------------------------------------------------