Gibonni - Tempera

Transkripcija: Zan


             Dm		    Bmaj          A7
Ispod moga pramca jutro zapleteno u dubinama
           Dm                Bmaj         A7      
Kao lice starca naboralo se more  u daljinama

Kao
    D/Fis Gm7             A7      Dm                   /
    tempera         kisa nebo oboji		               / x2
         Bmaj        C                     Fmaj   A7   / 
Takve je boje    srce moje   od kad me ne volis        /

            Dm              Bmaj         A7 
Kada krenu zime i nakupe se alge na koritu
          Dm               Bmaj             A7
I na moje ime     u zaboravu     tvome duboku


***VERZIJA 2***
Transkripcija: ???
Poslao       : Mladen


E---------------------5----5--------3----------
H-------8----8-8------5----5--5~----3-3-3-2-3--
G-------5----5-5------5----5--5~----3-3-2-2-2--(2X)
D-----7------7-7----------------------------0--
A---5------5-----5--3----3--------1-----0-0----
E----------------------------------------------

E-----3-2~3-3-----------5----------------------
H---1-1-0~1-1-----6-6-5-5----------------------
G---2-2-2---2-----7-6-6-6----------------------(2X)
D---0---0---------8-7-7------------------------
A----------------------------------------------
E---------------6---5-5------------------------

E------------2---------3-2~3---------------5-----------------
H--------2-----2-------3-2~3-----------5-----5------8--6-5~6-
G------2---------2---3---2~3-------5~6---------6----5--5-5---**
D---------------------------------------------------7--7-7---
A-------------------------------------------------5----5-5---
E--0~2-----2-------3----------3--5-------5-------------------

E----------1--------------3-----------------1---------------------
H------3-----3-------5-------5----------------1---1------3------2-
G----3---------3-------5-------5-------1--------2------0------2---
D------------------------------------2----------------------------
A--1-----1--------3-------3---------------------------------0-----
E---------------------------------1-------1----------0------------

ponovo **
E-----------1--------3~5--5-5-5-----3---3~5--5-5-5----3--0--
H-------3-----3---3--5----5-5-5--6--5---5----5-5-5--6-5--2--
G-----3---------3----5----5-5-5--5--5---5----5-5-5--5-5--2--***
D-----------------------------------------------------------
A--1------1----------3----3-3-3--3--3-3-3----3-3-3--3-3--0--
E-----------------------------------------------------------

ponovo ***

Solo pratnja: Hm, F#m, G, Gm, A, Hm, F#m, G, Em

E----------
D---7--7--
A---7--7--
E---------

itd.
-
H---6--6--      (ona dva jazzy akorda na kraju sola)
G---6--6