Gibonni - Zivot Me Umorio

Transkripcija: Nermin Caluk (hilmo@bih.net.ba)
Home         : http://2akordi.net


str. A c#m A f#m B (g#m G#)
ref. C#m A E-D#-c#m-B-A B (E d#m B)
pre. F#m -> g#m A <- g#m  (ag#ag#b->c#m)

Na meni je red, da se dignem u pet
I u redu za crni kruh da cekam svitanje
Na tebi je red, za rijec ili dvje
Da ih poklonis meni umjesto utjehe

		Zivot me umorio, moje svjetlo nosis ti
		Za sta bih se borio sam bez tvoje ljubavi
	
Iz noci u noc, iz dana u dan
Pola zlice hladne juhe nasim usnama
A ti, ti reci ces da jos uvijek sam ja
Sve ono sto si u meni trazila

Ako kazem da ne mogu 
Ako posrnem ti ja
Ako saviju me kise
Bez obzira na sve - boricu se za tebe
Za tebe...


-------------
int. = uvod
str. = strofa
ref. = refren
pre. = prelaz
end. = kraj
-------------

***VERZIJA 2***
Transkripcija: Davor Tomic (tomicd2@tiger.uofs.edu)
Home         : http://academic.scranton.edu/student/TOMICD2



Uvod: --Akusticna gitara-- 

e--------------------------------------8/10-9-----10-----------------------
H--------------------------------------8/10----10-----12--------10---------
G------7-9-11-12-11--9-7--6-7-9-7-6-7--7/9----------------11-12----12-11-12
D-7-9---------------------9------------------------------------------------
A--------------------------------------------------------------------------
E--------------------------------------------------------------------------

e--------------------------------------------------------------------------
H----------------------------12-------------12--12/10--10/12--12/10--------
G--11-12-11-9-11-9-9/7-------11-9-9/7-------11--11/9----9/11---11/9--------
D-----------------------9-7------------9-7---------------------------------
A--------------------------------------------------------------------------
E--------------------------------------------------------------------------


Uvod:--elektricna gitara-- 

e------------------------------------------------------------------------------
H------------------------------------------------------------------------------
G------7-9--9/11--11/12--12/14--12--12/11-12--12-11-9-------------------11-9-11
D-7-9--------------------------------------------------12--9-9/7--7/12---------
A------------------------------------------------------------------------------
E------------------------------------------------------------------------------


e-------------14-15-17-17/(19)-15-14-15-------14-17-15-14----------------------
H----14-15-17------------------------------15--------------17/(20)--15-17-15---
G-16-------------------------------------16------------------------------------
D------------------------------------------------------------------------------
A------------------------------------------------------------------------------
E------------------------------------------------------------------------------


G              Hm
Na meni je red da se dignem u pet        --rif prelaz--
G           Em                 A         e----------------------------
I u redu za crni kruh da cekam svitanje. H----------------------------
G               Hm                       G----------------------------
Na tebi je red za rijec ili dvije        D----------------------------
G              Em           A     F#     A---------5---------5-----5--
da ih poklonis meni umjesto utjehe.      E--0-5-7------0-5-7----7-----


Ref.
                    
            Hm    G                   D A Hm
Zivot me umorio a moje svijetlo nosis ti,
             G     A                   D  F#
za sta bi se borio sam, bez tvoje ljubavi?
                      G   A                   G
.......za sta bi se borio sam, bez tvoje ljubavi?..    --drugi put--

Iz noci u dan iz dana u noc
pola zlice hladne juha nasim usnama,
A ti reci ces da jos uvijek sam ja
sve ono sto si u meni trazila. 

Ref. 

                      --prelaz--
Em                      Em D
I ako kazem da ne mogu
G               G F# G
ako posrnem ti ja
Em                      Em D
ako saviju me kise
    G  F#  G  F# G
bez obzira na sve
G F#  G  F# G  A Hm
borit cu se za tebe...   za tebe...