Goblini - Ne Trebam Nikome

Transkripcija: Nikola Kolarovic (nikolak@bigfoot.com)


Uvod i prva strofa:
  F#m                     A
E-------------------------------------------------
H-------------------------------------------------
G-------------------------------------------------
D----2--4--2-----2--4--2-----2--4--2-----2--4--2--
A--4--4--4--4--4--4--4--4--4--4--4--4--4--4--4--4-
E-2-----------2-----------5-----------5-----------


Fm                A
Izmisljen za sebe srecan sto postojim
Veceras ja sam u boji noci
Izguzvane misli drzim u ruci
Telefon ne zvoni ne trebam nikome

Fill
H--/5-5-3-2-3-2-

Fm                A
Lose je uvek lose a dobra imaju lica
Obuci se i kreni progutaj nesto da zavolis svet
Lazan osmeh i jeftine poglede
Ne podnosim njihov dodir i zato nikom ne pruzam ruku

H5        D5      A5             
Ne trebam nikome, moj savrseni par
Ne trebam nikome, srecan sam ovako sam
Ne trebam nikome, ne trebam nikome
H5        D5     F#5....
Ne trebam nikome...

Izmisljen za sebe srecan sto postojim
Veceras ja sam u boji noci
Izguzvane misli drzim u ruci
1Telefon ne zvoni ne trebam nikome

< solo, pa opet>

--------------------------------------------------------------
 Sve ispravke i dopune su dobrodosle! (nikolak@bigfoot.com)

***VERZIJA 2***
Transkripcija: NEred_source (jelenpivo6@hotmail.com)
Album        : Re Contra


intro & 1 verse 
|--------------------------|
|--------------------------|ovo se svira sa Delay effectom
|--------------------------|i sa prigusivanjem
|--------2-----4-----2-----|kao uvod i kroz prvu strofu
|-----4-----4-----4-----4--|
|--2-----------------------|

kroz strofu se ubacuje druga gitara na par mesta
i ide ovako
gitara 2
|----------------------------------------|
|----------------------------------------|
|-----------2-1------------2-----2--2/4--|
|---------------2--------2---------------|
|---------0--------------------0---------|
|--0-2--------------0-2------------------|

Bridge:           
|------------------------------------------------------|
|--3/5--5------------3/5--5---------5---3/5--5---------|
|--4/6--6--7-6-7-----4/6--6--7-6-7--6---4/6--6--7-6-7--|
|--------------7--4--------------7--7---------------7--|
|-----------------4-----------------7------------------|
|-----------------2------------------------------------|
ubacuje se ovde i druga gitara al mrsko mi sad sve sitnice skidat


Chorus:               B5  D5  A5  D   A   D   A
B5        D5    A5   |---------------------------|
Ne trebam nikome     |---------------------------|
     D A D A         |-4---7------7---6---7---6--|
Moj savrseni plan    |-4---7---7--7---7---7---7--|
B5        D5    A5   |-2---5---7-----------------| 
Ne trebam nikome...  |---------5-----------------|

Solo

sta on na solu svira nemam pojma 
ako neko mozda tacno zna nek mi javi

ja to nekako ovako pokusavam
|--------------------------------------
|-9/10\9/10\9/10\9...--10/12\10/12\10--
|--------------------------------------
|--------------------------------------
|--------------------------------------
|--------------------------------------

posle sola verse svira na ovaj nacin
|---------------------------------------5-------
|---------------------------------------5-------
|-----------------------------------------------
|-------------------------------------7----7/9--
|--4-4----4-4----4---4---4----------7------7/9--
|--2-2--0-2-2--0-2-0-2-0-2-5-4-0--5-------------