Goblini - On Je Ona Je

Transkripcija: Toma 3:16 (toma3-16@wanadoo.fr & toma3_16@msn.com)


------------------------------
------------------------------
------------7--7-7-7-7-7-7-7--
------------7--7-7-7-7-7-7-7--
------------5--5-5-5-5-5-5-5--
5-4-3-5-4-3-------------------

------------------------
------------------------
------7--7-7-7-7-7-7-7-- x3
------7--7-7-7-7-7-7-7--
------5--5-5-5-5-5-5-5--
3-4-5-------------------

-----------------------------------------------------------------------------
-----------------------------------------------------------------------------
5------------5------------5------------5------------3------------3-----------
5------------5------------5------------5------------3------------3-----------
3------------3------------3------------3------------1------------1-----------
--3-5--3-5-3---3-5--3-5-3---3-5--3-5-3---3-5--3-5-3---1-3--1-3-1---1-3--1-3-1

------------------------
------------------------
------------------------
-7--7-7-7-7-7-7-7--3-5--
-7--7-7-7-7-7-7-7--3-5--
-5--5-5-5-5-5-5-5--1-3--


RIFF   D
       Zivi u podrumu,i ima pticu.
       A           G
       Kljun joj zakljucava.
       D
       Kavez proverava.
       D
       Zivi u podrumu,i ima pticu.
       A           G
       Kljun joj zakljucava.
       D
       Kavez proverava.

RIFF  F         G
       Veruje u moc formule.
       A
       On je ona je, on je ona je !!!
      F            G
       Ceka znak - zna da vreme je.
       A
       On je ona je, on je ona je !!!
      F         G
       Veruje u moc formule.
       A
       On je ona je, on je ona je !!!
      F            G
       Ceka znak - zna da vreme je.
       A
       On je ona je, on je ona je, on je ona je, on je !!!

------------------------
------------------------
------7--7-7-7-7-7-7-7--    x4
------7--7-7-7-7-7-7-7--
------5--5-5-5-5-5-5-5--
3-4-5-------------------

-----------------------------------------------------------------------------
-----------------------------------------------------------------------------
5------------5------------5------------5------------3------------3-----------
5------------5------------5------------5------------3------------3-----------
3------------3------------3------------3------------1------------1-----------
--3-5--3-5-3---3-5--3-5-3---3-5--3-5-3---3-5--3-5-3---1-3--1-3-1---1-3--1-3-1

------------------------
------------------------
------------------------
-7--7-7-7-7-7-7-7--3-5--
-7--7-7-7-7-7-7-7--3-5--
-5--5-5-5-5-5-5-5--1-3--


RIFF   D
       Danas je nedelja, dan kada padaju kise.
       A       G
       On sedi na plafonu.
       D
       I ceka da mu izrastu sise.
       D
       Danas je nedelja, dan kada padaju kise.
       A       G
       On sedi na plafonu.
       D
       I ceka da mu izrastu sise.

RIFF  F         G
       Veruje u moc formule.
       A
       On je ona je, on je ona je !!!
      F            G
       Ceka znak - zna da vreme je.
       A
       On je ona je, on je ona je !!!
      F         G
       Veruje u moc formule.
       A
       On je ona je, on je ona je !!!
      F            G
       Ceka znak - zna da vreme je.
       A
       On je ona je, on je ona je !!!

RIFF   G     A   A#  F
      --------------------
      --------------------
      -12~---14--15--10~--      x2
      --------------------
      --------------------
      --------------------

RIFF  F         G
       Veruje u moc formule.
       A
       On je ona je, on je ona je !!!
      F            G
       Ceka znak - zna da vreme je.
       A
       On je ona je, on je ona je !!!
      F         G
       Veruje u moc formule.
       A
       On je ona je, on je ona je !!!
      F            G
       Ceka znak - zna da vreme je.
     
RIFF   E
       On je ona je, on je ona je
       G
       On je ona je, on je ona je
       A             C            G
       On je ona je, on je ona je on
       E
       On je ona je, on je ona je
       G
       On je ona je, on je ona je
       A                          B
       On je ona je, on je ona je on