Goblini - On

Transkripcija: Nikola Kolarovic (nikolak@bigfoot.com)



E----------------------------
H----------------------------
G-7----7----7-6-4-2--2-22222-
D-7-7--7-7--7-6-4-2--2-22222-
A-5-0--5-0--5-4-2-0--0-00000- X2
E----------------------------

E----------------------------
H----------------------------
G-777777777-7-6-4-2--2-22222-
D-777777777-7-6-4-2--2-22222-
A-555555555-5-4-2-0--0-00000- X2
E----------------------------


A5 A#5         F5
   Rodjen je u blatu
   I njemu suze izgled kvare
   Ti tumacis njegove more
   Ti samo sanjas svoje snove

E---------------------------
H---------------------------
G-XX-7--XX-7--4/5\4/5\4/5\4-
D-XX-7--XX-7--4/5\4/5\4/5\4-
A-XX-5--XX-5---------------- X3
E---------------------------

E------------------
H------------------
G-555555555----333-
D-555555555----333-
A-333333333----111-
E------------------


A5 A#5         F5
   Rodjen je u blatu
   I trazi lek za svoje rane
   Ti njemu uvek zelis dobro
   Ti mu samo krades dane


E--------------------------------------------
H--------------------------------------------
G-777777777777--7--6--4--2-222222222---------
D-777777777777--7--6--4--2-222222222---------
A-555555555555--5--4--2--0-000000000-0-2-3-2-
E--------------------------------------------
   On samo  ze-li bi-ti tvooooooooj

 On samo zeli biti tvoj X4

 Rodjen je u blatu
 I menja izgled u ocima ljudi
 U sebi cuva svoju snagu
 Ne da nikom da ga budi
 Rodjen je u blatu
 Polizi ga ili bezi
 U svojoj glavi krije klicu
 Psa koji nikada ne rezi

 On samo zeli biti tvoj X4
 < solo>
 On samo zeli biti tvoj X4
 
 E5      H5         C#5     H5
 On samo zeli biti, on samo zeli biti (fade out)


--------------------------------------------------------------
 Sve ispravke i dopune su dobrodosle! (nikolak@bigfoot.com)