Goblini - Sam, Phone, Glas

Transkripcija: Nenad Arsic



Uvod i strofe se sviraju ovako (Sve je P.M.)

E||--------------------------|--------------------------|
B||--------------------------|--------------------------|
G||--------------------------|--------------------------|
D||--------------------------|--------------------------|
A||--7--x--x--7--x--x--7--x--|--7--x--x--7--x--x--7--x--|
E||--5--x--x--4--x--x--5--x--|--5--x--x--4--x--x--5--x--|

--------------------------|--------------------------||
--------------------------|--------------------------||
--------------------------|--------------------------||
--7--x--x--7--x--x--7--x--|--7--x--x--9--9--9--9--9--||
--5--x--x--4--x--x--5--x--|--5--x--x--7--7--7--7--7--||
--------------------------|--------------------------||

A5          G#5*   D5              E5 A5            G#5*    D5 E5
Sam (sam sam sam),phone(phone phone), glas(glas glas glas)
A5,G#5*,D5,E5  A5,G#5*,D5,E5

A5           G#5*       D5
Ja sam mlada meni treba prostora
       A5    G#5* D5
i zato idem, odlazim.
H5      G5
  Sad si slobodna
H5         G5
  i sad si odrasla
H5       G5           A5
  sretan put ti mozes sve.

Ja sam nestvaran
Nocu nemaran
Danju umoran.

Tekst: (by cvejic)

Budim se, devet je, vec si otisla,
U sobi je ostao miris tvojih snova,
I sve je isto kao i svaki dan,
I ja ostah na podu, ko ce ga znati, opet sam mamuran.

Sam - Phone - Glas

Dijagnoza za tvoju bolest je ljubomora,
Djagnoza za tvoju bolest je patetika,
Ja sam mlada, meni treba prostora,
I zato idem, odlazim.

Sad si slobodna, i sad si odrasla,
Srecan put, mozes sve.
Ja sam nestvaran, nocu nemaran,
Danju umoran.

Ulice zovu, grad je birtija,
Pijem solo, alkohol me ubija,
Dajem oglas da sam slobodan.
Boze, budim se, devet je, vec si otisla.

Sad si slobodna i sad si odrasla,
Nadji razlog, ti mozes sve,
Ja sam nestvaran, nocu nemaran,
Danju umoran.

I stvarno ne znam zasto su me napustili svi,
I zasto kad mi se jave okrecu glavu videvsi to od njih,
I zasto neke bivse, neke buduce, suvise lice jedna na drugu,
Ta,ta,ta Ta,ta,ta Ta,ra,ta Ta,ra,ta,ra,ra.

Sam - Phone - Glas

* Napomena:
* Nisam znao kako da nazovem A--7-- pa sam napisao G#5*.(mozda i treba G#5)
*                            E--4--
*
* Ovo je live verzija pa se u onom delu "sam, phone, glas"
* pojavljuje eho(ono u zagradi),ne znam da li ga ima u org. verziji.
* Ako neko zna text 1 strofe neka se javi.