Goblini - Trag

Transkripcija: pipss@mail.ru
Home         : http://2akordi.net


Info:Sviraju se samo rifovi(5-ice),ali ja sam pisao odgovarajuce akorde
     svirajte kako vam volja.
     Poslije dva kruga krece intro figure 1 zatim se ubacuje figure 2
     pa onda vokal.

Intro:|Gm Eb |F  Bb|x2


  intro figure 1:
E|------------------------------|
B|------------------------------|
G|--3-2-------------3-2------5\-|
D|------3-5~--3\--------3-5~----|
A|------------------------------|
E|------------------------------|


  intro figure 2:       x3            
E|------------------------|---------------|
B|------------------------|---------------|
G|--------7h8p7-----------|----------8~---|
D|--(5)----------x--5-7-8-|--5-(7)-8------|
A|------------------------|---------------|
E|------------------------|---------------|


Gm                   Eb Cm
Pomeraj svoje telo - zivi
Gm                Bb        F 
Igraj neku igru , ne boj se niceg
Gm              Bb         
Voli da volis , mrzi da mrzis
F                  D 
Ostavi neki trag i nestani tiho

         Gm  Eb 
Glavom u zid
        Gm  Eb 
Telom u rupu
        Gm  Eb 
Duhom u raj
          Cm
Primer za sve

          Gm  Eb  
Ljubav me vodi
          Gm  Eb 
Mrznja me dize
        Gm  Eb 
Umem da letim
          D 
Primer za sve

Postoji lose vreme i lose price
Al' kako dodju tako i odu 
Voli da volis , mrzi da mrzis
Ostavi neki trag i nestani tiho

Solo:
|Gm  Eb  |D       |Gm  Eb  |D       |
|Gm      |Bb      |F       |D       |
|Gm      |Bb      |F       |D       |

........

***VERZIJA 2***
Transkripcija: Milan Pavlovic (paparaco@EUnet.yu)
Home         : http://www.yutabs.f2s.com


  Solo :
  G5             Dis5              D5
E|--------------------------------|--------------------------------|
H|--------------------------------|--------------------------------|
G|--------------------------------|--------------------------------|
D|(10)b12-----------------10--8---|7-------------------7-8-7-------|
A|--------------------------------|----------------------------8---|
E|--------------------------------|--------------------------------|

  G5             Dis5              D5
E|--------------------------------|--------------------------------|
H|--------------------------------|--------------------------------|
G|--------------------------------|--------------------------------|
D|--------------------------------|--------------------------------|
A|10------------------------------|--------------------------------|
E|------10----8--------------10-11|10------------------------------|

  G5                               B5
E|--------------------------------|--------------------------------|
H|--------------------------------|--------------------------------|
G|------------12----------10------|8-7----10-7-----8-7----10-7-----|
D|10h12---12----------12------12--|---10-8----10-8----10-8----10-8-|
A|--------------------------------|--------------------------------|
E|--------------------------------|--------------------------------|

  F5                               D5
E|--------------------------------|--------------------------------|
H|--------------------------------|--------------------------------|
G|8-7----10-7-----8-7----10-7-----|8-7----10-7-----8-7----10-7-----|
D|---10-8----10-8----10-8----10-8-|---10-8----10-8----10-8----10-8-|
A|--------------------------------|--------------------------------|
E|--------------------------------|--------------------------------|

  G5                               B5
E|--------------------------------|--------------------------------|
H|----18------18----18-------18---|18------------------------------|
G|----17b19---17b19-17b19----17b19|17b19r17-15-17--15--------------|
D|--------------------------------|------------------------17\-----|
A|--------------------------------|--------------------------------|
E|--------------------------------|--------------------------------|

  F5                               D5
E|--------------------------------|------------18------------------|
H|----------------------------15--|----18b20-------18b20r18----15--|
G|----15----------15------15------|--------------------------------|
D|17----------17------17----------|--------------------------------|
A|--------------------------------|--------------------------------|
E|--------------------------------|--------------------------------|

  G5
E|--------------------------------|
H|18--18b20-----------------------|
G|--------------------------------|
D|--------------------------------|
A|--------------------------------|
E|--------------------------------|

  Korisceni akordi:
G5  -35XXXX
Dis5-X68XXX
D   -X57XXX
B   -X13XXX
F   -13XXXX