Goblini - Vodja

Transkripcija: Milan Pavlovic (paparaco@EUnet.yu)
Home         : http://www.yutabs.f2s.com

  Uvod :
  F       E        Am               F      E         Am
E|----------------|------5---------|----------------|------5---------|
H|----------------|--------8-------|----------------|--------8-------|
G|----------------|----5-----5-----|----------------|----5-----5-----|
D|----3-------2---|--7---------7---|----3-------2---|--7---------7---|
A|--3---3---2---2-|0---------------|--3---3---2---2-|0---------------|
E|1-------0-------|--------------0-|1-------0-------|--------------0-|

  F       E        Dm               F       G        Am
E|----------------|------1---------|1-------3-------|5---------------|
H|----------------|----3---3-------|1-------3-------|5---------------|
G|----------------|--2-------2-----|2-------4-------|5---------------|
D|----3-------2---|0-----------0---|3-------5-------|7---------------|
A|--3---3---2---2-|----------------|3-------5-------|7---------------|
E|1-------0-------|----------------|1-------3-------|5---------------|


  Tema :
  F5               E5               A5            C5 C5
E|----------------|----------------|----------------|----------------|\
H|----------------|----------------|----------------|----------------||
G|----------------|----------------|----------------|----------------||x3
D|3---2---0-------|0---2-----------|----------------|----------------||
A|------------3---|--------3---0---|--------------3-|----5-3-5-3-----||
E|----------------|----------------|5---5---3-5-5---|----------------|/

  F5               E5               A5               A5
E|----------------|----------------|----------------|----------------|
H|----------------|----------------|----------------|----------------|
G|----------------|----------------|----------------|----------------|
D|3---2---0-------|0---2-----------|----------------|----------------|
A|------------3---|--------3---0---|7---x-x-7---x-x-|7---7---7---7---|
E|----------------|----------------|5---x-x-5---x-x-|5---5---5---5---|


  Strofa:
A5          C5
  Dosao sam izdaleka
A5         C5
  Dosao sa ciljem
A5      C5
  Pojeo kuce
F5      C5 G5 D5
Ulice i ljude

Od jutra do mraka
Gledam kako sunce pada
Od mraka do jutra
Listam telefonski imenik grada

  Prelaz :
E|----------------|----------------|----------------|----------------|
H|----------------|----------------|----------------|----------------|
G|----------------|----------------|----------------|----------------|
D|----------------|7-5-------------|----------------|----7-------7---|
A|7-----7---------|------7---5-----|7-----7---------|x-x-5---x-x-5---|
E|5-----5---------|----------------|5-----5---------|x-x-----x-x-----|


  Refren:
C5     G5     D5       A5
Ja sam jedini covek na svetu


  Kraj refrena: Dis5, D5, C5, A5

Vezanih ociju trazim
Rupu na kraju sveta
Dok letim raspadam se
Na male, sarene kuglice


  Korisceni akordi:
A5  -57XXXX
C5  -X35XXX
F5  -13XXXX
G5  -35XXXX
D5  -X57XXX
Dis5-X68XXX