Haustor - Sal Od Svile

Transkripcija: Ivan Djacic (djacic@yahoo.com)
Home         : http://2akordi.net


                Em  Em7
Ja sam bio pogresan
           C      D       Em Em7
Kad sam ti stavio ruku na rame
              C   D
Tamo je drzao dugo
          Em     Em7
I govorio rijeci

Ja sam bio pogresan
Kad sam trazio da mi kazes koja si strana
Postoje pravila igre
Ti znas da ne mozes sama

Ispod svih tih zastava
Sto vijore svud oko nas
Ne postoji mjesto gdje mogla bi stati
Visoko dignuti ruke
I pjevati nasu pjesmu
I pjevati nasu pjesmu

< solo = strofa >

Protiv volje umijesan
U staru zavjeru strana, u staru zavjeru nada
Ja sam jednoga dana
Slucajno nasao put

C     D             Em
Ispod svih tih zastava
Em7     C    D
Sto vijore...

ref:
D      Em   Em7
Kapi s oboda
C                    D
Sada padaju na uze i gun
       Em       Em7
Ja sam slobodan
     C                   D      Em     Em7
Neka s moga vrata vijori sal od svile
     C            D
Neka s moga vrata vijori
       Em   Em7
Kapi s oboda
C                    D
Sada padaju na uze i gun
       Em       Em7
Ja sam slobodan
     C                   D      Em     Em7
Neka s moga vrata vijori sal od svile
     C            D
Neka s moga vrata vijori

< solo = ref >
< ref >

                 ^  ^
/--------------( *  * )---------------\
|=====================================|
|        < DjAkOn   StRaSnI >         |
|          djacic@yahoo.com           |
\-------------------------------------/

***VERZIJA 2***
Transkripcija: Medjutim (medjutim@beotel.yu)
Album        : Bolero (1985)


C (jednom)       Em (razlozen)
Ja sam bio pogresan
                  C   /D        Em
Kad sam ti stavio       ruku na rame
Tamo je drzao dugo
I govorio rijeci

Ja sam bio pogresan
Kad sam trazio da mi kazes
Koja si strana
Postoje pravila igre
Ti znas da ne mozes sama

Ispod svih tih zastava
Sto vijore svud oko nas
Ne postoji mjesto
Gdje mogla bi stati
Visoko dignuti ruke
I pjevati nasu pjesmu
I pjevati nasu pjesmu.

          C  /D      E          C  /D       E
D|-2-4--5-|---7--7-5---|-2-4--5-|---7--7-5--2-2-2-2--2-2-| /x2

                              C              /D    Em
Protiv volje umijesan     E|-12--12--12------|-----| (fill 1)
U staru zavjeru strana    H|---12--12--12----|--8--| (na pocetku prva dva stiha)
U staru zavjeru nada                                 (i na pocetku "Ispod..")
Ja sam jednoga dana       A|---7-9-10-7-|       (fill 2)
Slucajno nasao put        E|-7----------|       (bass izmedju svaka dva stiha)
Ispod svih tih zastava
Sto vijore ...

       Em
Kapi s oboda
     C               D                  Em
Sada padaju na uze i gun, ja sam slobodan
Neka s moga vrata vijori sal od svile ...
Neka s moga vrata vijori ... kapi s oboda
Sada padaju na uze i gun, ja sam slobodan
Neka s moga vrata vijori sal od svile ...
Neka s moga vrata vijori sal...

E|--12----12---12--12-10-----|  /riff tokom dela "Kapi s oboda..."
H|--12----12---12--------12--|

Saksofon solo izmedju dva refrena:
H|-5/12--10-10-10-10---------|----------------------------------------------------|
G|-------------------12-12-9-|-12-9-9-9-9-12-9-------------9-9----12-9-9-12-9-----|
D|---------------------------|-----------------12-12-12-12-----12------------12---|

H|---------------------------|------------10----10----12b13r12-10-10--------------|
G|------9-9----12b14-12-9----|-9-12-12b14----12----12----------------12-9----9-12-|
D|-9-12-----12------------12-|--------------------------------------------12------|

H|----10-10----/10-8---/8-------------------|------------------------------|
G|-12-------12-------9----9-7-9-7-----7-9-9-|-7-9------12p9----------------|
D|----------------------------------7-------|---------------9---9-12-11-12-|

H|-----------10----------10-----------|-10-----------------|-12~10-12----10----10-|
G|-9-12-12-9----12--9h12----12-9-9----|----12-12-9-9-------|----------12----------|
D|---------------------------------12-|---------------9-12-|----------------12----|