Hladno Pivo - Ljetni Hit

Transkripcija: Toma 3:16 (toma3-16@wanadoo.fr)


     -7------------7--
     ---8-3----3-8----
     -----------------(x2)
     -----------------
     -----------------
     -----------------

     G         Am           Bm   C
     Mazemo si tijelo nekim faktorom
        G        Am    Bm   C
     Na istome rucniku ja i on
            G      Am       Bm   C
     On ima divna, misicava ledja
       G    Am          Bm    C
     I kosu poput Dzimi Pejdza

     G  Am  Bm  C  (x2)

     G             Am          Bm        C
     Poslije ce se on jos malo brckati u moru
    G          Am     Bm  C
     Pravit se vazan, muzevan
    G         Am      Bm      C
     Ja cu na plazi pijuckati kolu
           G  Am   Bm     C
     I cekati   da izadje van

RIFF  G  A  B  C  (x2)

RIFF G       A           B          C
     On pije pivo i vozi bolje od mene
     G        A             B          C
     Ja pijem sok jer su mi ruke njeznije
     G       A           B          C
     On pije pivo i vozi bolje od mene
     G        A             B   C
     Ja pijem sok jer su mi ruke
            G   A   B   C
     njeznijeee eee eee eee !!!!
            G   A   B   C
     njeznijeee eee eee eee !!!!
            G   A   B   C
     njeznijeee eee eee eee !!!!
            G   A   B   C
     njeznijeee eee eee eee !!!!

     G  Am  Bm  C  (x4)

    G        Am      Bm      C
     A vjetar donosi ruzne rijeci
    G       Am       Bm,   C
     Razbacane medju valovima
     G        Am     Bm    C
     To plaza zavidi nasoj sreci
            G    Am    Bm     C
     Sto se sunca tako bezbrizno

     --------------------------------------------------------------
     --------------------------------------------------------------
     -9-7---------9-7-------------9-7------------------------------
     ------9-7-5-------9-7-7-9-5-------9-7-5---5--5-5-5-4-2-2------
     ---------------------------------------------------------5-5--
     --------------------------------------------------------------

        G         Am  Bm   C
     Al nas tjesi san radosta
    G      Am      Bm  C
     Da ce jednoga dana
         G      Am  Bm     C
     Ova pjesma bit ljetni hit
    G         Am         Bm  C
     I svi ce pjevati sa nama

RIFF G       A           B          C
     On pije pivo i vozi bolje od mene

     G        Am            Bm         C
     Ja pijem sok jer su mi ruke njeznije

RIFF G       A           B          C
     On pije pivo i vozi bolje od mene

     G        Am            Bm  C
     Ja pijem sok jer su mi ruke

RIFF        G   A   B   C
     njeznijeee eee eee eee !!!! x puta


     G  Am  Bm  C  (x4)

     G         Am           Bm   C
      Mazemo si tijelo nekim faktorom
         G        Am    Bm   C
      Na istome rucniku ja i on
             G      Am       Bm   C
      On ima divna, misicava ledja
        G    Am          Bm    C   G
      I kosu poput Dzimi Pejdza    aaa


***VERZIJA 2***
Transkripcija: fler (mrwhite@net.hr)


Intro :
e|--------------------------|---------------------------|
B|---< 12>------------------|------------< 12>----------|
G|*-------< 12>-------------|-------< 12>--------------*|
D|*------------< 12>--------|--< 12>-------------------*|
A|--------------------------|---------------------------|
E|--------------------------|---------------------------|

  - Strofa :
e|---------------------|---------------------|---------------------|
B|---------------------|---------------------|---------------------|
G|---------------------|-4--4-5--4h5p4-------|---------------------|
D|--5----5---7---7-7---|-----------------7---|--5----5---7---7-7---|
A|-----5---------------|---------------------|-----5---------------|
E|---------------------|---------------------|---------------------|

    ---------------------|
    ---------------------|
    -4--4-5--4h5p4-------|
    -----------------5---|
    ---------------------|
    ---------------------|

e|-------------------------|--------------------------|
B|-------------------------|--------------------------|
G|*-------4--------5-------|---7----9----------------*|
D|*---5-5---5--7-7---7-----|-9---9--10---9------7\---*|
A|-------------------------|--------------------------|
E|-------------------------|--------------------------|

  - Prijelaz:
 e|-------------------------|----------------------------|
 B|-------------------------|----------------------------|
 G|*-------4--------5-------|----9----------7------5----*|
 D|*---5-5---5--7-7---7-----|-10---10----9-----7--------*|
 A|-------------------------|----------------------------|
 E|-------------------------|----------------------------|

  - Strofa :

 e|---------------------|-------------------------|---------------------|
 B|---------------------|-------------------------|---------------------|
 G|---------------------|-4--4-5--4h5h7p5p4-------|---------------------|
 D|--5----5---7---7-7---|-------------------5-----|--5----5---7---7-7---|
 A|-----5---------------|-------------------------|-----5---------------|
 E|---------------------|-------------------------|---------------------|

    ---------------------|
    ---------------------|
    -4--4-5--4h5p4-------|
    -----------------5---|
    ---------------------|
    ---------------------|

 e|---------------------|--------------------|------------------|----------------||
 B|---------------------|--------------------|------------------|----------------||
 G|---------------------|-4--4-5--4h5p4p0----|--7---7--5--5-4---|----------------||
 D|--5----5---7---7-7---|-----------------5--|------------------|---7--5h7p5-----||
 A|-----5---------------|--------------------|------------------|------------7---||
 E|---------------------|--------------------|------------------|----------------||

  - PreChorus :
 e|----------------------------|----------------------------|
 B|----------------------------|----------------------------|
 G|*---------------------------|---------------------------*| 6x
 D|*---------------------------|---------------------------*|
 A|---5-5-x--7-7-7-x--9-9-9-x--|---10------9--------7\------|
 E|---3-3-x--5-5-5-x--7-7-7-x--|---8-------7--------5\------|
      +++++++++++++++++++++++

  - Chorus :
 e|-----------------------|---------------------------|
 B|-----------------------|---------------------------|
 G|*--7-7-7-7-5-4-5---7---|--------------------------*| 4x
 D|*--7-7-7-7-5-4-5---7---|--------------------------*|
 A|---5-5-5-5-3-2-3---5---|--10------9--------7\------|
 E|-----------------------|--8-------7--------5\------|



  - Prijelaz :
       gtr I
 e|---------------------|---------------------|--------------------|
 B|---------------------|---------------------|--------------------|
 G|---------------------|-4--4-5--4h5p4-------|--------------------|
 D|--5----5---7---7-7---|-----------------7---|--5----5---7---7-7--|
 A|-----5---------------|---------------------|-----5--------------|
 E|---------------------|---------------------|--------------------|
  |

  |    gtr II

  |

 e|---------------------|---------------------|--------------------|
 B|---------------------|---------------------|--------------------|
 G|---------------------|-4--4-5--4h5p4-------|--7----7---9-----9--|
 D|--5----5---7---7-7---|-----------------5---|--------------------|
 A|-----5---------------|---------------------|--------------------|
 E|---------------------|---------------------|--------------------|

    --------------------|
    --------------------|
    -4--4--5--4h5p4-----|
    -----------------5--|
    --------------------|
    --------------------|
                        |
                        |
                        |
    --------------------|
    -7--7--8--7h8p7-----|
    -----------------9--|
    --------------------|
    --------------------|
    --------------------|


 e|---------------------|--------------------|---------------------|
 B|---------------------|--------------------|---------------------|
 G|---------------------|-4--4-5--4h5p4------|---------------------|
 D|--5----5---7---7-7---|----------------7---|--5----5---7---7-7---|
 A|-----5---------------|--------------------|-----5---------------|
 E|---------------------|--------------------|---------------------|
  |

  |

 e|---------------------|--------------------|---------------------|
 B|---------------------|--------------------|---------------------|
 G|--7\-5-4---5-4-------|---4----------------|---------------------|
 D|---------------7-5---|-7---7---5----------|--5----5---7---7-7---|
 A|---------------------|-------------7--5---|-----5---------------|
 E|---------------------|--------------------|---------------------|

    ---------------------||
    ---------------------||
    -4--4-5--4h5p4-------||
    -----------------5---||
    ---------------------||
    ---------------------||
                         ||
                         ||
    ---------------------||
    ---------------------||
    -4--4-5--4h5p4-------||
    -----------------5---||
    ---------------------||
    ---------------------||

  - Strofa

  - Prijelaz :

     gtr I
   G                  Em                     G                     
     gtr II
 e|-------------------|---------------------|---------------------|
 B|-------------------|---------------------|---------------------|
 G|---/9-----7~~------|---------------------|---/9-----7~~--------|
 D|-------------------|----9----7-----5~~---|---------------------|
 A|-------------------|---------------------|---------------------|
 E|-------------------|---------------------|---------------------|

    Em
    ---------------------|
    ---------------------|
    ---------------------|
    ---9----7--7---5~~---|
    ---------------------|
    ---------------------|


  G                   Em       C                                   
 e|-------------------|---------------------|---------------------|
 B|-------------------|---------------------|---------------------|
 G|---/9-----7~~------|---------------------|---------------------|
 D|-------------------|----9----7-----5~~---|---5---5-5----5--4---|
 A|-------------------|---------------------|---------------------|
 E|-------------------|---------------------|---------------------|

    D
    -----------------------|
    -----------------------|
    -----------------------|
    ---2----2--------------|
    ------------5~~-----\--|
    -----------------------|

   G     Em     C     D
   G     Em     C     D

  - PreChorus :
 e|----------------------------|--------------------------|
 B|----------------------------|--------------------------|
 G|*---------------------------|--------------------------|
 D|*---------------------------|--------------------------|
 A|---5-5-x--7-7-7-x--9-9-9-x--|---10------9--------7\----|
 E|---3-3-x--5-5-5-x--7-7-7-x--|---8-------7--------5\----|
     +++++++++++++++++++++++++++++++++++++++++++++++++++

 e|------------------------|--------------------------|
 B|------------------------|--------------------------|
 G|-------4--------5-------|---7----9----------------*|
 D|---5-5---5--7-7---7-----|-9---9--10---9------7\---*|
 A|------------------------|--------------------------|
 E|------------------------|--------------------------|


  - Chorus :
 e|-----------------------|---------------------------|
 B|-----------------------|---------------------------|
 G|*--7-7-7-7-5-4-5---7---|--------------------------*|     8 x
 D|*--7-7-7-7-5-4-5---7---|--------------------------*|
 A|---5-5-5-5-3-2-3---5---|--10------9--------7\------|
 E|-----------------------|--8-------7--------5\------|


  - Outro :
                                               3x
 e|---------------------|----------------------|
 B|---------------------|----------------------|
 G|*--------------------|-4--4-5--4h5p4-------*|
 D|*-5----5---7---7-7---|-----------------7---*|
 A|-----5---------------|----------------------|
 E|---------------------|----------------------|

 e|---------------------|---------------------|
 B|---------------------|---------------------|
 G|---------------------|-4--4-5--4h5p4-------|
 D|--5----5---7---7-7---|-----------------5---|
 A|-----5---------------|---------------------|
 E|---------------------|---------------------|

 e|------------------------|---------------------|
 B|------------------------|---------------------|
 G|-------4--------5-------|---7----9----9-\-----|
 D|---5-5---5--7-7---7-----|-9---9--10---10\-----|
 A|------------------------|---------------------|
 E|------------------------|---------------------|

 e|------------------------|----------------------|
 B|------------------------|----------------------|
 G|-------4--------5-------|---7----9~---7--------|
 D|---5-5---5--7-7---7-----|-9---9---------9--7---|
 A|------------------------|----------------------|
 E|------------------------|----------------------|

 e|------------------------|---------------------|
 B|------------------------|---------------------|
 G|-------4--------5-------|---7----9----9-\-----|
 D|---5-5---5--7-7---7-----|-9---9--10---10\-----|
 A|------------------------|---------------------|
 E|------------------------|---------------------|

 e|----------------------|-----------------------|---0-----------||
 B|----------------------|-----------------------|---0-----------||
 G|-------4--------5-----|---7----9--------------|---4-----------||
 D|---5-5---5--7-7---7---|-9---9--10---9----7\---|---5-----------||
 A|----------------------|-----------------------|---------------||
 E|----------------------|-----------------------|---------------||

   - h - hammer-on
   - p - pull-off
   - / i \ - slide
   - <> - natural harmonic
   - + - palm mute

******************************************************************************

     Mazemo si tijelo nekim faktorom
     Na istome rucniku ja i on
     On ima divna, misicava ledja
     I kosu poput Dzimi Pejdza

     Poslije ce se on jos malo brckati u moru
     Pravit se vazan, muzevan
     Ja cu na plazi pijuckati kolu
     I cekati
     Da izadje van


     On pije pivo i vozi bolje od mene
     Ja pijem sok jer su mi ruke njeznije
     On pije pivo i vozi bolje od mene
     Ja pijem sok jer su mi ruke

     njeznijeee eee eee eee !!!!
     njeznijeee eee eee eee !!!!
     njeznijeee eee eee eee !!!!
     njeznijeee eee eee eee !!!!

     A vjetar donosi ruzne rijeci
     Razbacane medju valovima
     To plaza zavidi nasoj sreci
     Sto se sunca tako bezbrizno

     Al nas tjesi san radostan
     Da ce jednoga dana
     Ova pjesma bit ljetni hit
     I svi ce pjevati sa nama

     On pije pivo i vozi bolje od mene
     Ja pijem sok jer su mi ruke njeznije
     On pije pivo i vozi bolje od mene
     Ja pijem sok jer su mi ruke

     njeznijeee eee eee eee !!!!
     njeznijeee eee eee eee !!!!
     njeznijeee eee eee eee !!!!
     njeznijeee eee eee eee !!!!

     Mazemo si tijelo nekim faktorom
     Na istome rucniku ja i on
     On ima divna, misicava ledja
     I kosu poput Dzimi Pejdza

     aaah....