Hladno Pivo - Samar

Transkripcija: Luka Vidos a.k.a Burne "Zoja" Feathers
Napomena     : ako ima kakvih gresaka, javiti na burne@burne.org

{Intro}
drum & bass

{pick only first string, let it ring}

Opet ti [G]drhte ramena, moja [C]malena
[G]opet sam ti nesto [C]kriv
[G]zasto skrivas lice zbog [C]masnice
[D]koja se i ne vidi

{chords, upstroke}

Ti [G]znas, kad sam nervozan, [C]planem
pa mi [G]ruka poleti[C]
Ali te [G]moje tamne [C]strane
ne znace [G]da te ne volim[C]

Kad [G]psovke ti se guse u [C]suzama
i kad [G]ti padne glupost na [C]pamet
ti se [G]sjeti nasih malih [C]curica
i [D]tko ovdje zaradjuje

{chords, distorted}

pa se [G]pitaj da li te [C]boli bas toliko
[G]moja mala[C] glumice
kako je [G]meni kad te volim[C] ovoliko
trpiti [D]tvoje ocijukanje

{solo}

[G] [C] [G] [C]

{chorus part 1, power chords}

kako te [E]slijede pogledi
kako se [C]ljepe po tebi
a ti ih [G]zeljno upijas, [D]mislis da ne vidim?

{chorus part 2, power chords}

kako te [E]slijede pogledi
kako se [C]ljepe po tebi
cijelim [G]tijelom uzivas, [D]mislis da ne vidim?
mislis da ne vidim?

{one chord, let it ring}

[E]

{light solo}

[E]tvoj me poljubac davi tiho pomice
zatvara vrata i prozore
tvoje suze me drze u opsadi
strazare nervozni pogledi
mislis da ne vidim...[E]/[F#]/[G]\[F#]\[E] {sliding 4x}

{chorus part 2 2x}

E C G D

{chorus part 2, no chords 2x}

{chorus part 1}
{chorus part 2}
{stroke}
mislis da ne vidim? [E] [C] [G] [D]

{solo, akorde vec znate...}


***VERZIJA 2***
Transkripcija: Nogola, nogola(AT)net.hr

SOLO:
---------------------------------------------------------------------
---------------------------------------------------------------------
---------------------------------------------------------------------
-2-2-2-2-4-5-5-4-2---------------------------------------------------
-------------------5-3-3-5-3----2-2-2-2-3-5-5-3-2--------------------
-------------------------------------------------------5-5-5-3-2-----

---------------------------------------------------------------------
--------------------------------------------3-3----------------------
-------------------4-4-4-5-4--2-4-4-4-4-4-5-----5-4-2-2-2------------
-2-2-2-2-4-5-5-4-5----------------------------------------5-4--5-4-2-
---------------------------------------------------------------------
---------------------------------------------------------------------