Indexi - Bacila Je Sve Niz Rijeku

Transkripcija: Milos Ilic


Em7 Fmaj7

Stajala je usred baste        Em7
ko najlepsi svjet             Fmaj7
kao da je dio maste           Em7
i muzike te                   Fmaj7

Fmaj7/C  Fmaj7/B

Slusala je pjesmu moju        Am B7
poslednju sto pjevam njoj     Em D#+ G/D C#dim
sad joj kazem zbogom draga    C-dur B7
a bila je zivot moj           Em7

Prosla je kroz moje snove     Em7
i bila je tren                Fmaj7
cjelim tjelom bila moja       Em7
ja bio sam njen               Fmaj7

Fmaj7/C  Fmaj7/B

Nosila je nasu ljubav         Am B7
nasu srecu prvi cvjet         Em D#+ G/D C#dim
bacila je sve niz rijeku      C-dur B7
i posla u drugi svjet         Em7

Ali nocas ako slusa           Em
nekĀ“ cuje bol                 Am
ovu pjesmu koju pjevam        D-dur
njoj samo njoj                G-dur B7
Zauvjek neka nosi             Em
na srcu znak                  Am
zivot je jedan ona bacila     Am Em Edim  B7 Em

Solo:
Em7 Fmaj7 Em7 Fmaj7
Fmaj7/C  Fmaj7/B


***VERZIJA 2***
Transkripcija: Sale (goma@pop.transit.ru)
Home         : http://yurope.com/people/sen/The.Book.Of.Home


Intro: Hm4 Fmaj7 Hm4 Fmaj7

Hm4
Stajala je usred baste
   Fmaj7
Ko najljepsi cvijet
Hm4
Kao da je dio maste
  Fmaj7
I muzike te

Bridge: C H Am

Am                H7
Slusala je pjesmu moju
Em            sEb     sD  sDb
Posljednju sto pjevam njoj
Cmaj7                H7
Sad joj kazem zbogom draga
          Em
A bila je zivot moj

Hm4
Prosla je kroz moje snove
  Fmaj7
I bila je tren
Hm4
Cijelim tijelom bila moja
   Fmaj4
Ja bio sam njen

Bridge: C H Am

Am             H7
Nosila je nasu ljubav
Em         sEb   sD    sDb
Nasu srecu, prvi cvijet
Cmaj7             H7
Bacila je sve niz rijeku
          Em
I posla u drugi svijet

Em               Am
Ali nocas ako slusa nek cuje bol
D                    G7         H7
U pjesmi koju pjevam njoj, samo njoj
Em                Am
Zauvijek neka nosi na srcu znak
       Em          H7  Em
Zivot je jedan ona bacila


***VERZIJA 3***
Transkripcija: ???

    Fm
    Stajala je usred baste
       F#
    Ko najljepsi cvijet
    Fm
    Kao da je dio maste
      F#         (C# C)
    I muzike te

    Bm                C7
    Slusala je pjesmu moju
    Fm             (E    D#    D)
    Posljednju sto pjevam njoj
    Bm                   C7
    Sad joj kazem zbogom draga
          Fm
    A bila je zivot moj

    Prosla je kroz moje snove
    I bila je tren
    Cijelim tijelom bila moja
    Ja bio sam njen

    Nosila je nasu ljubav
    Nasu srecu, prvi cvijet
    Bacila je sve niz rijeku
    I posla u drugi svijet

    Fm                  Bm
    Ali nocas ako slusa nek cuje bol
    D#                   G#         C7
    U pjesmi koju pjevam njoj, samo njoj
    Fm                 Bm
    Zauvijek neka nosi na srcu znak
         Fm        C7  Fm
    Zivot je jedan ona bacila
    Nosila je nasu ljubav
    Nasu srecu, prvi cvijet
    Bacila je sve niz rijeku
    I posla u drugi svijet

    Fm                  Bm
    Ali nocas ako slusa nek cuje bol
    D#                   G#         C7
    U pjesmi koju pjevam njoj, samo njoj
    Fm                 Bm
    Zauvijek neka nosi na srcu znak
         Fm        C7  Fm
    Zivot je jedan ona bacila


***VERZIJA 4***
Transkripcija: Aleksandar Vukovic


    Em                  Am            D                  Gsus4       H7
e |--------------------|-------------|------------------|-------------|
B |--------------------|-------------|------------------|-------------|
G |--------------------|-------------|------------------|-------------|
D |-----------9--------|---7-9-10-10-|------------------|-10-9^8^9----|
A |----7-9-10---10-9-7-|-7-----------|----7-9-10-9-7----|-------------|
E |--7-----------------|-------------|-10------------10-|-------------|

    Em                   Am                  Em       H7
e |--------------------|-------------------|---------|----------|
B |--------------------|---------------7-8-|-8-----8-|-8--7-----|
G |--------------------|-------------9-----|---------|-------9--|
D |-----------9--------|---7-9-10-10-------|---9-9---|----------|
A |----7-9-10---10-9-7-|-7-----------------|---------|----------|
E |--------------------|-------------------|---------|----------|

Em7   (Em7/9)      Em7  Fmaj7
Stajala je usred baste ko najljepsi cvet,
Em7  (Em7/9)    Em7    Fmaj7       C-H
kao da je dio maste i muzike te.

Am                H7    (Am)
slusala je pjesmu moju,
                (bas:ED#DC#)
Em           Emmaj7   Em7 Em6
poslednju sto pjevam njoj
Cmaj7                H7
sad joj kazem zbogom draga,
          Em7
a bila je zivot moj.

prosla je kroz moje snove i bila je tren,
cijelim tijelom bila moja, ja bio sam njen.
nosila je nasu ljubav,
nasu srecu, prvi cvijet,
bacila je sve niz rijeku
i posla u drugi svijet.

Em                   Am
al nocas, ako slusa, nek cuje bol,
D                  Gsus4        H7
u pjesmi koju pjevam njoj, samo njoj,
Em                Am
zauvijek nek nosi na srcu znak,
         Em        H7 Em
zivot je jedan ona bacila...


***VERZIJA 5***
Transkripcija: Sike

* Znam da ima mnogo verzija ove pjesme, ali mi se ni jedna u arhivi
* nije ucinila u potpunosti ispravna.
* Upravo zbog toga sam je poslao jer je ovo (po meni) prava verzija...
* Pa izvolite!


Uvod:
Figura 1. x2                     Figura 2. x2
e-------------------------     e---------------------------
h-----------5h6p5---------     h------------5h6p5----------
g------5----------7--5--7-     g------5------------7--5---7
d--/7-----7---------------     d--/8-----8-----------------
a-------------------------     a---------------------------
e-------------------------     e---------------------------

e-----------5---------------5--6-6-----------------------6--5-----5--
h-----5--6-----6--5------8----------------5--8--5--------------8-----
g--7-----------------7--------------5--7-----------7--5--------------
d--------------------------------------------------------------------
a--------------------------------------------------------------------
e--------------------------------------------------------------------

 -----------5--------------5--6-6----10--12--13-13------10--12--13--12--10-
 -----5--6-----6--5-----8---------------------------10---------------------
 --7-----------------7-----------------------------------------------------
 --------------------------------------------------------------------------
 --------------------------------------------------------------------------
 --------------------------------------------------------------------------

Strofa:
                             Prelaz
Stajala je...
e--5-5-5-5--5-5-        ----------------
h--6-6-6-6--6-6-        ----------------
g--7-7-7-7--7-7-        ----------------
d--7-7-7-7--8-8-   2x   --8--7--5-------
a--5-5-5-5--5-5-        ----------------
e--5-5-5-5--5-5-        ----------------

Slusala je...
e--3-3--5-5--5--5--5--5--3-3--5-
h--3-3--5-5--6--6--6--6--3-3--5-
g--3-3--6-6--7--6--5--4--3-3--6-
d--5-5--7-7--7-----------5-5--7-
a-------------------------------
e-------------------------------

Refren (preporucujem bare hvatove) :

Dm
A nocas ako slusa
Gm
Nek cuje bol
C
U pjesmi koju pjevam
F         A
Njoj, samo njoj

Dm
Zauvijek neka nosi
Gm
Na srcu znak
   Dm
Zivot je jedan ona
B  A  Dm
Ba-ci-la

* Cijeli text je napisan nekih milion puta (a vjerujem da ga svi znate),
* tako da je suvisno da ga ponovno saljem!!!