Indexi - Balada

Transkripcija: pipss@mail.ru
Info         : Izgleda mnogo komplikovanije nego sto jeste, mnogo 
               razlaganja ... kada se provali sistem, lako je, don't give up.


UVOD: A7sus2

Am9              Fmaj7     Dm7            Em7 
Idi sad druze moj, ljubavi pozdrav mi odnesi ,
      Am9 E7sus2 Am9 A7sus2
mojoj ti,

Am9              Fmaj7      Dm7            Em7 
Putu mom tu je kraj, umoran ovdje ja cu stati, 
      Am9 E7sus2 Am9 A7sus2
zelim mir,

    Cmaj7        Fmaj7
Kad ne bude mene,
              Cmaj7            Fmaj7 
kad me skriju paprati, travke i sas
    Cmaj7        Fmaj7
kad ne bude mene,
              Cmaj7               Fmaj7
ljubit' cu je pjesmama svojim i tad.

  Gm           Gm6         Gm7       Gm6
O reci mi njoj, da je tako prolazno sve, 
          Dm7 G/D D7sus4 Dm
kao ptica let.
Gm                     Gm6                Gm7        Gm6
samo nju ,da, volio sam ja , jer je za me bila sav svijet, 
           Dm7 G/D D7sus4 Dm 
crveni moj cvijet.
           Dm7 G/D D7sus4 A7sus2

Idi sad druze moj, ljubavi pjesmu mi ponesi , mojoj ti,
Dalje sad sam mogu poci, napolje ja cu naci, idi ti.

Kad ne bude mene, 
kada dodju drugi djecaci k'o ja,
kad ne bude mene,
reci da cu ostati sa njom i tad.

O reci mi njoj, da je tako prolazno sve, 
kao ptica let.
samo nju ,da, volio sam ja , jer je za me bila sav svijet, 
crveni moj cvijet.

_________________________________
Akordi:

A7sus2 : x02000 ili 57700x
Am9    : x05557 ili x05500
Fmaj7  : xx3555 ili xx3210
Dm7    : xx0211 ili x57565
Em7    : 0x0433 ili x79787
Cmaj7  : x35453
Gm     : 355333
Gm6    : 355353
Gm7    : 355363
E7sus2 : xx2432 ili x79777
G/D    : xx0433
D7sus4 : xx001x
Dm     : xx0231
_________________________________

***VERZIJA 2***
Transkripcija: Adis Salihbegovic - ARAN


Ritam gitara:
     Asus2              Am7              Fmaj7      Dm7
E||--0----------------|---------------|--0----------------|
B||--0----------------|---------1-----|--1----------------|
G||--0----------------|-------0-------|--2-------------5--|
D||--7----------------|-----2---------|--3-----------7----|
A||--7----------------|--0------------|-----------5-------|
E||--5----------------|---------------|-------------------|
                      Idi sad druze...
      Em7               
----------------|-------------------|-------------7-8-7----------|
-6-----8--------|------1------1--1--|-1---1/--7---------10-------|
-------7--------|------0------0--0--|-0---0/--7------------------|
-------9--------|------2------2--2--|-2---2/--7--------------0---|
-------7--------|--0----------------|----------------------------|
----------------|-------------------|----------------------------|
		         (poprilicno komplikovan ritmucki dio)
   Am7              C  D                            
--------------------------------|--------------------0--|
-------1----1-1-1---0/-0--0-0-0-|---------------1----1--|
-------0----0-0-0---5/-7--7-7-7-|-------------0------2--|
-------2----2-2-2---5/-7--7-7-7-|-----------2--------3--|
--0-----------------3/-5--5-5-5-|--------0--------------|
--------------------------------|---3h4-----------------|
(nemoguce svirat trzalicom)       Putu mom ja...
                                   
---------------------|-----------------|
---------6------6----|------1----1--1--|
-------5--------7----|------0----0--0--|
-----7----------9----|------2----2--2--|
--5-------------7----|--0--------------|
---------------------|-----------------|
                                    
--------------7-8-7-------------|-------------------------------|
--1---1/--7---------10----------|------1----1-1-1---0/-0--0-0-0-|
--0---0/--7---------------------|------0----0-0-0---5/-7--7-7-7-|
--2---2/--7--------------0------|------2----2-2-2---5/-7--7-7-7-|
--------------------------------|--0----------------3/-5--5-5-5-|
--------------------------------|-------------------------------|
  
C       Fmaj7            C     Fmaj7          C    
---------3/5-------5--|--------3/5------5--|--------3/5-------5--|
------5-------6-------|------5-----6-------|------5------6-------|
------5----------5----|------5--------5----|------5---------5----|
----5-----------------|----5---------------|----5----------------|
--3-------------------|--3-----------------|--3------------------|
----------------------|--------------------|---------------------|
Kad ne bude mene...
  
  C     Fmaj7           Gm        C  
--------3/5-------5--|---------3------------3---|
------5------6-------|---------3---------3----3-|
------5---------5----|-------3---3h---5---------|
----5----------------|--3/5---------------------|
--3------------------|--------------------------|
---------------------|--------------------------|
                       O reci mi njoj...
  Gm        C                                    
---------3------------3---|--------------------------------0---|
---------3---------3----3-|---3--6----6/8/6--3-1----3-3------3-|
-------3---3h---5---------|---2--5----5/7/5--2-0----2-2--------|
--3/5---------------------|---0--3----3/5/3--0-2----0-0--0-----|
--------------------------|--------------------3---------------|
--------------------------|------------------------------------|
                                                     
---------3------------3---|---------3------------3---|
---------3---------3----3-|---------3---------3----3-|
-------3---3h---5---------|-------3---3h---5---------|
--3/5---------------------|--3/5---------------------|
--------------------------|--------------------------|
--------------------------|--------------------------|
                                                         
-----------------------------|--------------|-------------------------|
---3--6----6/8/6--3-1----3-3-|--3--3/-5/-3--|---3--6----6/8/6--3-1----|
---2--5----5/7/5--2-0----2-2-|--2--2/-4/-2--|---2--5----5/7/5--2-0----|
---0--3----3/5/3--0-2----0-0-|--0-----------|---0--3----3/5/3--0-2----|
--------------------3--------|--------------|--------------------3----|
-----------------------------|--------------|-------------------------|
     Asus2                                                                       
-----0--------|
--1--0--------|
--0--2--------|
--2--2--------|
-----0--------|
--------------|
     (Udarit po zicama da odzvanja)

To je otprilike ritam gitara


SOLO:

Prvi dio sola je na gitari dominantno izrazen a u pozadini su orgulje,
poslije flauta ili mozda orgulje dobijaju dominantu a gitara je u pozadini

     Am7             Fmaj7                 Cm7         Em7        Am7
E||------------------10/12-12--12h10----|--10-10----10/12-12----------|
B||--8/10h8---10-10------------------13-|--------13-----------13------|
G||---------9---------------------------|------------------------14---|
D||-------------------------------------|-----------------------------|
A||-------------------------------------|-----------------------------|
E||-------------------------------------|-----------------------------|

  Am7          Fmaj7     Dm7      Em7
-----------------------------------------|
--8h9h10h8---8/10-10--6h5-6--6/8-8---6-5-|
-----------9-----------------------------|
-----------------------------------------|
-----------------------------------------|
-----------------------------------------|

Drugi dio solo
Napisana je samo flauta jer je gitara u pozadini i
otprilike svira modulaciju na solo

                 C  Fmaj7  C Fmaj7 C        Fmaj7  C         Fmaj7
E||-----12-13-13/15--15/13-12-|--15/17-15--13-12-13h15-13-12-|
B||--13-----------------------|------------------------------|
G||---------------------------|------------------------------|
D||---------------------------|------------------------------|
A||---------------------------|------------------------------|
E||---------------------------|------------------------------|
 
Gm          C           Gm              C 
------------------12--|--15/17-15--13-12----|
-----12-13-13h15------|------------------15-|
--14------------------|---------------------|
----------------------|---------------------|
----------------------|---------------------|
----------------------|---------------------|

(nisam siguran da je bas skroz dobro skinuto ovo na flauti, al uskoro
cu napisat i pratecu gitaru Sad mi mrsko :))

Evo i teksta da je sve na jednom mjestu:

          Idi sad druze moj
          Ljubav i pozdrav mi odnesi mojoj ti
          Putu mom tu je kraj
          Umoran ovde ja cu stati, zelim mir

          Kad ne bude mene
          Kad me skriju paprati, travke i sas
          Kad ne bude mene
          Ljubit cu je pesmama svojim i tad

          O reci mi njoj
          Da je tako prolazno sve
          Kao ptica let
          Samo nju, da, volio sam ja
          Jer je za me bila sav svijet
          Crveni moj cvijet

          Idi sad druze moj
          Ljubav i pesmu mi ponesi mojoj ti
          Dalje sad mogu sam
          Pocinak ovdje ja cu naci, idi ti

          Kad ne bude mene
          Kada dodju drugi djecaci ko ja
          Kad ne bude mene
          Reci da cu ostati sa njom i tad

          O reci mi njoj
          Da je tako prolazno sve
          Kao ptica let
          Samo nju, da, volio sam ja
          Jer je za me bila sav svijet
          Crveni moj cvijet

          Idi sad druze moj
          Ljubav i pesmu mi ponesi mojoj ti
          Dalje sad mogu sam
          Pocinak ovdje ja cu naci, idi ti

          Kad ne bude mene
          Kada dodju drugi djecaci ko ja
          Kad ne bude mene
          Reci da cu ostati sa njom i tad

          O reci mi njoj
          Da je tako prolazno sve
          Kao ptica let
          O reci mi njoj
          Da je tako prolazno sve
          Kao ptica let
          Kao ptica let