Irina I Vi - Sad Se Brise I Blijedi

Transkripcija: Sven Vidovic-Popek, Cazin-BiH (vida_snk@yahoo.com)
Album        : I krv mi vri



Uvodni solo:
                      Em                        D                     A
e-----------------------------------------------------------------------------------
H-----------------------12--10--12~12------ 10--10~~-----------10-------------------
G-9h11h12--11--9----9~~---------------11h12----------9--11--12----11--9----9h10p9~~-
D----------------12-----------------------------------------------------12----------
A ----------------------------------------------------------------------------------
E-----------------------------------------------------------------------------------


Em              D           Em     G--D
Izvini sto sam usla bez kucanja
Em          D        Em            G--D
To je samo stara navika
Em        D                 Em     G--D
Zao mi je sto te vidim umornog
Em      D             Em           G--D
Neispavanog nepocesljanog

e---------------------------------
H---------------------------------
G---12p11-12---14---11------9~~~--        2x
D---------------------------------
A---------------------------------
E---------------------------------

Svako dobro u sebi krije mrvu zla
Ja lose hocu sada da ubijem
Bijele rijeci, stari zidovi
Jos cvrsto stoje izmedju nas

Pre REF
Em             D       A          Em
Ne zovi me kad nisam  bila za tebe
             D       A
I nezali za onim sto proslo je
Em             D           A
Bili smo mladi da bi prastali


Refren: (uvodna dionica prati refren)

Em              D               A          Em
Sad se brise i blijedi sve sto volim i sto vrijedi
Em             D      A              Em
Dva puta isti san se nikada ne ponavlja
Em             D               A             Em
Sad se brise i blijedi sve sto volim i sto vrijedi
Em            D        A           Em
Dva puta isti san se nikada ne ponavlja

Solo (znam nekako pocetak skrpiti ali dalje zasada nemogu...)

e-----------------------------------------------------------------------------------
H------8------10-------12-------14-------15----14\--------14-----12----10-12--10~~--
G--6/9----9/11----11/12----12/14----14/16----14------12/14-----14----12-------------
D-----------------------------------------------------------------------------------
A-----------------------------------------------------------------------------------
E-----------------------------------------------------------------------------------

Izvini sto sam usla bez kucanja
To je samo stara navika
Zao mi je sto te vidim umornog
Neispavanog nepocesljanog

Pre Refren
Ne zovi me kad nisam  bila za tebe
I nezali za onim sto proslo je
Bili smo mladi da bi prastali

Refren
Sad se brise i blijedi sve sto volim i sto vrijedi
Dva puta isti san se nikada ne ponavlja
Sad se brise i blijedi sve sto volim i sto vrijedi
Dva puta isti san se nikada ne ponavlja
Sad se brise i blijedi sve sto volim i sto vrijedi
Dva puta isti san se nikada ne ponavlja

KRAJ