Jura Stublic - Bili Cvitak

Transkripcija: Vuki

D                       G               D
ptico moja mladih krila visoko mi letis ti
                    A            D
mene zove domovina, morao sam otici,
D                       G               D
ne bojim se ja umrijeti za slobodu i za dom,
                       A               D
vec se bojim kada odem da ti krila ne slome

D                        G               D
ptico moja mladih krila, raspast ce se okovi,
                           A                 D
kad poletis cistim zrakom, iznad zemlje slobodne,
D                        G             D
spusti jedan bili cvitak tamo iznad Kijeva,
                         A              D
spusti jedan bili cvitak tamo iznad Kruseva.

D7
ooooooo
G                        D
bili cvitak je na spomen jednoj vjecnoj ljubavi,
                   A7                 D
za svoj narod i za tebe, morao sam umrijeti.


kratki solo (nisam bas siguran da je dobar)

E -2-2-2-3-2-0-2--2-2-2-3-2-0-2--2-2-2-3-2-0-2-----2-----
B ---------------------------------------------7-5-------
G -------------------------------------------------------
D -------------------------------------------------------
A -------------------------------------------------------
E -------------------------------------------------------

***VERZIJA 2***
Transkripcija: Freddy Scollnic


Strofa:
E                      A                 E
Ptico moja mladih krila visoko mi letis ti,
E                  H                E
Mene zove domovina slobodna ces ostati.

.....

Refren:
A
Bili cvitak je na spomen
E
jednoj vjecnoj ljubavi
E
za svoj narod i za tebe
H                E
morao sam umrijeti

Solo 1:
e -4-4-5-4-|-4-4-5-4-|-5-5-5h7p5-|-4-4-5-4-|
H ---------|---------|-----------|---------|

e -4-4-5-7-|-4-4-5-7-|---------|------|
H ---------|---------|-7-7-5-7-|-5----|

Solo 2:
e -4--4h5p4-----|-4--4h5p4-----|-5-5-5-5h7p5-|-4-4-4-----|
H ----------7-5-|----------7-5-|-------------|-------7-5-|

e -4--4h5p4-----|-4--4h5p4-----|------------------|
H ----------7-5-|----------7-5-|-7-7-7-7-7/9--7-5-|