Jura Stublic - Dijete Ulice

Album        : Film, Novo! Novo! ... (1981)
Transkripcija: Partibrejkers


Uvod:
E----------------------------------
H----------------------------------
G----2-2-2-2-2-2---2p0-------------
D-2--2-2-2-2-2-2--------2p0--------
A-0--------------------------3--0--
E----------------------------------

E----------------------------------
H----------------------------------
G----2-2-2-2-2-2-------------------
D-2--2-2-2-2-2-2-------------------
A-0--------------------------------
E----------------------------------


Strofa:
Am
Stojim na ulici u gradu snova
Pred vratima njihovog kluba
Unutra je muzika, djevojke i svijetla
Ali mene nece pustiti da udem.

Refren
Am G                      C
Ne,   nema mjesta za mene

Am                G
Jer ja sam dijete, dijete ulice.

Vidis li me u lokalu
Razbicu ti flasom glavu
Kazes li mi da sam peder
Skociti cu kao feder
Cipelom u svoja usta
Bez zuba bice tako pusta

Ja izbicu ih sve
Jer ja sam dijete, dijete ulice.

Mladicu tvoja sjajna kola
ce sutra lezati u jarku
Ali ja necu biti tamo
Ljubit cu tvoju djevojku u parku

Am            G
Nesto se mora promijeniti, znam

C
I ja cu biti gore na vrhu

Am             G
Dajte mi barem najslabiju kartu

C              G
I ja cu ipak pobijediti na kraju

C                Am
Ja cu pobijediti, ja cu pobijediti

G
Ja cu pobijediti

C
Ja cu pobijediti

G
Ja, ja mogu sve

C
Mogu sve

Am
Jer ja sam dijete

G
Dijete ulice.



Akordi:
Am -  577555
G  -  355433
C  -  8 10 10 9 8 8