Jura Stublic - Ljubav Je Zakon

Transkripcija: ????
Poslao       : Faruk Jesenkovic (farukjesenkovic@hotmail.com)
Home         : http://galeb.etf.bg.ac.yu/~drs/muzika/



sva [Am]kola slijede [C]ceste kao [F]brodovi valo[C]ve
ja [Am]slijedim svoje [C]srce - njegovo [G]glasno lupa[C]nje
bog [Am]ima deset zapo[C]vjedi a [F]drzava zakone
priznajem [Am]samo jedan [C]zakon - moju [G]ljubav za tebe
zbog [Am]tebe bih opljackao [C]banku sve [F]bezvrijedne dinare
pa [Am]neka me uhvate i [C]slome kad [G]volim bezakonje

[C]ljubav je [G]zakon koji [Am]priz[G]na[Am]jem
[C]ljubav je [G]zakon [Am]je[G]di[Am]ni
[C]ljubav je [G]zakon [Am]najja[G]ci od [Am]svih
[C]ljubav je [G]zakon koji po[Am]bje[G]dju[Am]je


***VERZIJA 2***
Transkripcija: Grof [pivara023@attcanada.net]
Home         : http://www.tablature.co.yu


Sva [Am]kola slijede [C]ceste kao [Am]brodovi valo[C]ve
ja [F]slijedim svoje [C]srce - njegovo [G]glasno lupa[Am]nje

Bog [Am]ima deset zapo[C]vjedi a [Am]drzava zakone[C]
priznajem [F]samo jedan [C]zakon - moju [G]ljubav za tebe[Am]

Zbog [F]tebe bih opljackao [C]banku sve [F]bezvrijedne dinare[C]
pa [F]neka me uhvate i [C]slome kad [G]volim bezakonje[Am]

[C]ljubav je [G]zakon koji [Am]priz[G]na[Am]jem
[C]ljubav je [G]zakon [Am]je[G]di[Am]ni
[C]ljubav je [G]zakon [Am]najja[G]ci od [Am]svih
[C]ljubav je [G]zakon koji po[Am]bje[G]dju[Am]je

***VERZIJA 3***
Transkripcija: Jelenkovic Ivan (ivanimiljan@ptt.yu)


UVOD: akordi iz strofe
                             2x
e-5-5-5-5-7-5-----3-3-3-3---3--|-5-5-5-5-7-5----3-3-3-3--------|
h-------------------------5----|-------------------------5-3---|
g------------------------------|-----------------------------5-|
d------------------------------|-------------------------------|
a------------------------------|-------------------------------|
e------------------------------|-------------------------------|

----------------------------
---------5------------------
-7-7-7-7---7----------------
----------------7-7-7-7-5-7-
----------------------------
----------------------------


Ceo uvod se ponavlja dva puta i svira se tokom prvog dela strofe.
Kada pocinje ponavljanje uvoda po drugi put cuje se bas:

                 3x
g-------------------|---------------|
d---5-7---7-5----5--|---------------|
a-7------------7----|-7-5-7---7-5---|
e-------------------|-------------5-|



    Am           C         Am         C
Sva kola slijede ceste kao brodovi valove
     F                C           G           Am
A ja slijedim svoje srce, njegovo glasno lupanje
Bog ima deset zapovjedi a drzava zakone
Priznajem samo jedan zakon, moju ljubav za tebe
   F                  C         F               C
Za tebe bih opljackao banku sve bezvrijedne dinare
   F                C         G            Am  G
Pa neka me uhvate i slome kad volim bezakonje

C         G          Am  G  Am
Ljubav je zakon koji priznajem
Ljubav je zakon jedini
Ljubav je zakon najjaci od svih
Ljubav je zakon koji pobjedjuje