Jura Stublic - Rob Ljubavi

Transkripcija: Prof. Barrett (igor770@lycoas.com)

Za Akusticnu gitaru uvod: 
<>
e---------------------------------------------------------------------
B---------------------------------------------------------------------
G----7s9b~~-7---7b~~---------9s11b~~-9---7b----7-9-11---9s11b-9-7b----
D-------------9---------9s10b----------9-------------7-------------9b-
A---------------------------------------------------------------------
E---------------------------------------------------------------------

Dm        G             C
Na jednom jadranskom otoku
F        D           G
sreo sam mladu djevojku
Srce mi je osvojila
razbila ga na djela dva

Jedan dio kuca za nju 
a drugi kuca samo za nju
Sa otoka ne mogu pobjeci 
Postao sam rob ljubavi 

Refren: x2
C      G      F          C
Ja sam roooooob rob ljubavi
F           C        G     Am   G
Zarobila me djevojka sa otoka 

<>
e-------------------------------------11---------------------------
B-12s14-14b-12------------------12-14----12---8-10b-10-8-----------
G--------------14-12-12---12-14-------------------------10-9-8-----
D------------------------------------------------------------------
A------------------------------------------------------------------
E------------------------------------------------------------------

e--------------------------------------------12-10-9---------------
B-------------------------------------12-14b--------12-10-9-10-----
G-8-10-10s12-10-8-7---7-8-10-10s12---------------------------------
D------------------------------------------------------------------
A------------------------------------------------------------------
E------------------------------------------------------------------

Cijeli dan kisi u Zagrebu 
Cujes li pjesmu na radiju
Ona je samo za tebe
moje zivjenje ljiljane 

Pjesma je samo za tebe
Moj smedjooki andjele
Na otok cu se vratit
Jer ja sam rob nase ljubavi

REFREN