Jura Stublic - Sjecam Se Prvog Poljupca

Transkripcija: Ivan Vasic (ivasic@cent.co.yu)
Home         : http://www.tablature.co.yu


E
Sjecam se prvog poljupca
     A            H
samo on je bio sladak
E
sjecam se prvog dodira
     A          H    A
samo tada sam drhtao
  H       E              A
a onda su nestala osjecanja
   E              H       E
ne osjecam nista, samo se sjecam

imao sam stotinu djevojaka
i one su imale mene
dao sam im moju ljubav
i zato je vise nemam
to je dobro, vise nema problema
ne osjecam nista, samo se secam

        G                   D
Vjeruj, nema zivota od sjecanja
                  C
dao bih milijardu dinara
                     G          D
za jedan sekund prvog poljupca


***VERZIJA 2***
Transkripcija: Mario Dautovic

/ solo / E-H-A-H 4x

E                              A         H
sjecam se prvog poljupca, samo on je bio sladak
E                            A        H
sjecam se prvog dodira, samo tada sam drhtao
A H       E       C#m  A
a onda su nestala osjecanja
E                 H       E
ne osjecam nista, samo se sjecam

/ solo / E-H-A-H 2x

imao sam stotinu djevojaka i one su imale mene
dao sam im svoju ljubav, zato je vise nemam
to je dobro, vise nemam problema
ne osjecam nista, samo se sjecam

   G-D-C-G-D
ti da, ti da da...
G                          D
vjeruj nema zivota od sjecanja
                      C                   G           D
dao bih milijardu dolara, za jedan sekund prvog poljupca

/ solo / E-H-A-H 4x

sjecam se prvog poljupca, samo on je bio sladak
sjecam se prvog dodira, samo tada sam drhtao

a onda su nestala osjecanja
ne osjecam nista, samo se sjecam

nema zivota od sjecanja...
ti da, ti da da...
vjeruj nema zivota od sjecanja...

***VERZIJA 3***
Transkripcija: Admir O. (swissadmiral@gmx.ch)

Intro 4X:
   E      H           A          H            E
E|------------------------------------------|-----
H|--------------------10-9-------10-9-7-9-7-|-----
g|-8/9----8-9-11-----------9-11-------------|-8/9-
D|-----9---------9--9-----------------------|-----
A|------------------------------------------|-----
E|------------------------------------------|----- ...


***VERZIJA 4***
Transkripcija: Ivan Kapov (ikapov@acmt.hr)


UVOD: X4
e-------------------------------------------------------------------
h-------------------------------------------------------------------
g--s9------8h9s11-----------s14-13-9---11-----s14-13-11------11-9s8-
d------9-----------7------------------------------------------------
a-------------------------------------------------------------------
e-------------------------------------------------------------------


Kad svirate intro na elektricnoj gitari nemojte stediti distorziju tako
da vam tonovi koje se "slide-aju" zvuci priblizno originalu, jer se inace
svira na saxofonu.
Ritam nije tezak, ali za tocan timing cete ipak morate preslusati koji put
staru dobro Jurinu stvar: )

Pozdrav, I.K.