Jurica Padjen - Sto Si U Kavu Stavila

Transkripcija: Adrijan J. (Djole_12@yahoo.com)
Home         : http://2akordi.net


Am        G     C   F
Sto si mi u kavu stavila
C     Am    C        G         Am
Cudni napitak ti meni si podvalila
G     C  F
Sto si mi u kavu stavila
C       Am     C        G        E
gubim kontrolu prihvacam tvoja pravila.

Am    F    Am       G          Am
U kuhinji si k'o nasred plesnog podija
ladice tvoje sve pune su mirodija
ljuske od zmaja sto ljutih trava lastin rep
i sismisevih tucanih krila prepun dzep
vjestice malena.

Otvoris oci i vec pretvoris noc u dan
ti potpuno svjeza, a ja totalno mamuran
i sav u magli se suvislo rasudjujem
pa svoju lovu jos od tebe posudjujem
vjestice malena.
        

***VERZIJA 2***
Transkripcija: Hrvoje Brnas (hrvoje.brnas@zg.htnet.hr)

UVOD:
    Am       F       Am      G
E||-5---5p3-5-3-5~---5--5p3-5-7-8~-7-------------------------------|
B||-5----------------5---------------------------------------------|
G||-5----------------5---------------------------------------------|
D||-7----------------7---------------------------------------------|
A||-7----------------7---------------------------------------------|
E||-5----------------5---------------------------------------------|
Ovaj dio ide dva puta,iznad su akordi,al u cetvero taktu,svaki
ima po dva takta,a poslije toga ide akord E,kojeg prati harmonika
koja ide:

    E
E||------------4~--4-5-4-------------------------------------------|
B||--5~-5-6-5------------------------------------------------------|
G||----------------------------------------------------------------|
D||----------------------------------------------------------------|
A||----------------------------------------------------------------|
E||----------------------------------------------------------------|
Onda opet prvi dio intra, s tim da zadnji ton,napravite brzi hammer/pull of,
znat cete kad cujete pjesmu i onda opet harmonika sa E akordom:


E||------------4~--4-5-4--7~--7-8-7--12~-10~-8~-7~------------------|
B||--5~-5-6-5-------------------------------------------------------|
G||-----------------------------------------------------------------|
D||-----------------------------------------------------------------|
A||-----------------------------------------------------------------|
E||-----------------------------------------------------------------|
Ovaj zadnji dio harmonika se ponavlja poslije prvog refrena,pa pprvog stiha,
tj. svaki put kad se pojavljuje E akord

Nadam se da kuzite sve!