Kerber - Bolje Da Sam Druge Ljubio

Transkripcija: Milan Pavlovic - paparaco@EUnet.yu


Strofa:
Dm
U tvojoj kosi sam sakrio zvezde
C               B
Mesec u kuci od dlanova
Dm
Ispod kaputa dve ranjene ptice
C              B
I dugu iz moga jastuka

Prelaz:
C       Dm
Jeftina noc za sve
C       Dm
Neverne drugove
C     Dm
I ceo svet nek sagori
B            C
Samo da tebe prebolim

Refren:
Gm           B     F    C
Bolje da sam druge ljubio
Gm      B          Dm  C
Radosti moja, moja nevero
Gm        B         F   C
K'o besan pas lajem nocima
         B
Na tvoje prozore



***VERZIJA 2***
Transkripcija: tarik (tarik_bruncevic@yahoo.com)


Strofa:
Dm
U tvojoj kosi sam sakrio zvezde
C               B
Mesec u kuci od dlanova
Dm
Ispod kaputa dve ranjene ptice
C              B
I dugu iz moga jastuka

Prelaz:

------------------------------------
------------------------------------
------------------------------------
-------7-7-7-7-7-7-7-7---3-5-----7--
-------5-5-5-5-5-5-5-5---1-3---7-5--
-------------------------------5----
mutet  . . . . . . . .

C       Dm
Jeftina noc za sve
C       Dm
Neverne drugove
C     Dm
I ceo svet nek sagori
B            C
Samo da tebe prebolim

Refren:
Gm           B     F    C
Bolje da sam druge ljubio
Gm      B          Dm  C
Radosti moja, moja nevero
Gm        B         F   C
K'o besan pas lajem nocima
         B
Na tvoje prozore


Refren: (modulacija ++)
Am           C     G    D
Bolje da sam druge ljubio
Am      C          G    D
Radosti moja, moja nevero
Am        C         G    D
K'o besan pas lajem nocima
         C
Na tvoje prozore

refren I 2.gitara
-----------------
-----------------
-----------------   x3
--------------5--
-5-x--7-8--3--3--
-3-x--5-6--1-----
mutet .

-----------------
-----------------
-----------------
-3-3-3-3-3-3-3-3-
-1-1-1-1-1-1-1-1-
-----------------

refren II 2.gitara
-----------------
-----------------
-----------------
---------------7-  x3
-7-x--9-10--5--5-
-5-x--7-8---3----
mutet .

-----------------
-----------------
-----------------
-5-5-5-5-5-5-5-5-
-3-3-3-3-3-3-3-3-
-----------------

pratnja za solo

pratnja solo I
------------------------------------
------------------------------------
------------------------------------
-------7-------------3------5------- x2
-------5-------------1------3-------
------------------------------------

pratnja solo II
---------------------------------------
---------------------------------------
---------------------------------------
------9-9-9-9-9-9----5-5-5-5-5-7-7-7-7- x2
------7-7-7-7-7-7----3-3-3-3-3-5-5-5-5-
---------------------------------------

solo I
------------------------------------
-5b7br5-----------------------------
--------5-7-------------------------
-------------3----5----------------- x2
-------------1----3-----------------
------------------------------------