Kojoti - Na Kraju Svijeta

Album        : Kojoti
Transkripcija: ivan3   a38@net.hr
                01.06.07


Riffovi:

 A riff
|-----------------|-----------------|
|-----------------|-----------------|
|*----------------|----------------*|
|*2-------2-----2-|-2--------------*|
|-0---5-3-0-5-3-0-|-0---------------|
|-----------------|-----------------|

 E riff
|-----------------|-----------------|
|-----------------|-----------------|
|-----------------|-----------------|
|-----------------|-----------------|
|-2---------------|-----------------|
|-0---5-3-0-5-3-0-|5-3-0-5-3-0-5-3-0|

 C riff
|-----------------|
|-----------------|
|-----------------|
|-----------------|
|-------0--3--0---|
|-0--3-----------3|





Intro:
A riff + E riff


A riff
Iz svog kruga sam sve ljude sklonio
U svojim plucima vjetar zarobio
Brodove lomio sam u mnogim lukama
                                       E riff
Sunce sam skinuo sa neba sa svojim rukama


Refren: (2x)
A5  (G5) C5           D5
Ja znam  sve, ja mogu sve
        C5     D5 C-riff
I niko ne moze srusiti me
Ja znam sve ja mogu sve
Na kraju svijeta sam ostajem (2x)

Sa orlom letio sam, sa kitom plivao
Planine presao sve, sva mora popio
Na kraju svijeta sam stao i nemam vise kud
Krenu`cu ispocetka po ko zna koji put


Refren

Solo
(E-pentatonika, pa A-pentatonika)


Bridge:
A5 C5/A D5/A

Refren
... Na kraju svijeta sam ostajem