Kraljevski Apartman - Gore Digni Glavu

Transkripcija: nenad djakovic rocker


Glavni RIF:
e------------------------------------
h------------------------------------
g------------------------------------
d-----9-9----9-9-9----9-9----9-9-7---
a--10-7-7-10-7-7-7-10-7-7-10-7-7-5---
e------------------------------------

  Glavni RIF

  Ti i ja cudan par
  Lepotica i zver
  Ja cudesni poyer
  Ti tresnjin cvet
  Izgleda nije fer

  Glavni RIF

  Ulica pise stihove
  Ne radja ratnike
  Gubim korak
  Grabim dah
  Kidam ti latice

  C    D           E
  Kako ljubav da ti vratim
  C    D         E
  Kako nadu da ti dam
  C     D        E
  Kad i ovo malo nade
  C            H  deo 1
  Drugi mi sjebava

  deo 1
  e---------------------------
  h---------------------------
  g---------------------------
  d-2-----------2-----7-8-9---
  a---5-2-5-2-5---5-2-5-6-7---
  e---------------------------

  E               D E
  Gore digni glav
  E
  Mi smo uvek u pravu
  D                   E  D Dis E
  Niko nam nista ne moze
  E
  Gore digni glavu
  E
  Mi smo uvek u prav
  D                 C  H
  Niko nam nista ne moze


  Pratnja za solo:E /C D E/3x C E

  rifovi posle sola:A G D E

  Svaki dan isti dan
  Sivilo ubija
  Tvoj vedri osmeh jedini lek
  Sjebana vizija

  Glavu u pesak,koji ce dan
  Neko obecava
  Ja vaspitan lepo
  Verujem sve
  Drugi mi kreira

  kraj
  e----------------------------------------------
  h----------------------------------------------
  g----------------------------------------------
  d-2-----------2-----------2-----------9-9-7-9--
  a---5-2-5-2-5---5-2-5-2-5---5-2-5-2-5-7-7-5-7--
  e----------------------------------------------