Kraljevski Apartman - Izgubljen U Vremenu

Transkripcija: Djolle
Album        : Izgubljen u vremenu (2000)

   ...ovo E5* je ono na 7. pragu
                               X             Y
E5*
Pogledaj me, probudi se     d--9-10-9-7------12-10-9-7--
D5		E5*    X            a--7-8--7-5------10-8--7-5--
Otvaram dusu ranjenu        e---------------------------
E5*	       G5
U mom svetu ne stoji vise
D5	    C5     Y
Ni kamen na kamenu

Kao kroz san prolazi dan
I pretvara se u noc
Ja vise nemam ni volje ni snage
Polako tonem u ponor.

solo: 3 puta X pa C5 D5| sve ovo 2 puta

Ti si moj bol, vatra i led
Jedini otrov koji prija
Moj je zivot sam bez tebe 
Kao prazna pustinja.

Preref:
H5	      D5
Pored tebe se osecam 
    A5		     G5
Kao izgubljen u vremenu
D5	    A5
Kao da kroz vatru idem
  E5*	              G5      H5
I gazim po vrelom pepelu, pepelu.

Ref:
D5A5	H5
Neka te djavo nosi 
G5   A5  H5
Rane ostaju
D5   A5   H5			2X
Zbog tebe sada lutam 
    G5          A5   H5
Kao izgubljen u vremenu.

pa neki dugacki solo

preref
ref 2x
onaj prvi solo
kraj.

***VERZIJA 2***
Transkripcija: Stojan Babic


Intro:
e||------------------------------|---------------------------|
B||------------------------------|---------------------------|
G||------------------------------|---------------------------|
D||----------------------5p4-----|----------------------5~---|
A||--7--7--7p5-----5--7------5p0-|--7--7--7p5-----5--7-------|
E||--0---------7p5---------------|--0---------7p5------------|

   ------------------------------|---------------------------|
   ------------------------------|---------------------------|
   ------------------------------|---------------------------|
   ----------------------5p4-----|---------------------------|
   --7--7--7p5-----5--7------5p0-|--7--7--7p5-----5----------|
   --0---------7p5---------------|--0---------7p5----5--3~---|

   ------------------------------|---------------------------|
   ------------------------------|---------------------------|
   ------------------------------|---------------------------|
   ----------------------5p4-----|----------------------5~---|
   --7--7--7p5-----5--7------5p0-|--7--7--7p5-----5--7-------|
   --0---------7p5---------------|--0---------7p5------------|

   ------------------------------|--------------------------|
   ------------------------------|--------------------------|
   ------------------------------|--------------------------|
   ----------------------5p4-----|----------------5----7----|
   --7--7--7p5-----5--7------5p0-|--7--7--7p5-----3----5----|
   --0---------7p5---------------|--0---------7p5-----------|

E5
Pogledaj me, probudi se
D5                E5
Otvaram dusu ranjenu

-----------------------|
--8--------------------|
--7--9----7--9----9----|
-----9----7--9----9----|
-----------------------|
-----------------------|

E5             G5
U mom svetu ne stoji vise
D5          C5
Ni kamen na kamenu

-------------------------|
--8--10----8--7----------|
--7--9-----7--7----7--9--|
-------------------7--9--|
-------------------------|
-------------------------|

Kao kroz san prolazi dan
I pretvara se u noc

------------------------|
------------------------|
--12--9----7--9----9----|
--x---x----x--x----x----|
--10--7----5--7----7----|
------------------------|

Ja vise nemam ni volje ni snage
Polako tonem u ponor.

e||---------------------------------------------|
B||---------------------------------------------|
G||--9-9--10-9-7-9--9-10-9--9-9--10-9-7--5--7---|x2
D||--x-x--x--x-x-x--x-x--x--x-x--x--x-x--5--7---|
A||--7-7--8--7-5-7--7-8--7--7-7--8--7-5--3--5---|
E||---------------------------------------------|

pratnja E5 pred kraj C5 D5 sve x2


Ti si moj bol, vatra i led
Jedini otrov koji prija
Moj je zivot sam bez tebe
Kao prazna pustinja.

Preref:

H5               D5
Pored tebe se osecam
     A5             G5
Kao izgubljen u vremenu
D5           A5
Kao da kroz vatru idem
  E5                  G5      H5
I gazim po vrelom pepelu, pepelu.

e||-------7--------------------------|------|
B||--10^^---10-7-----7---------------|------|
G||--------------9-7---9-7---9-7-----|--7~--|
D||------------------------9-----9-7-|------|
A||----------------------------------|------|
E||----------------------------------|------|

Refren:

D5A5     H5
Neka te djavo nosi
G5   A5  H5
Rane ostaju

D|----------|
A|-5-7------|
E|-----5-7--|

D5   A5   H5
Zbog tebe sada lutam
    G5           A5   H5
Kao izgubljen u vremenu.

Solo:
e||---------------------|---|--------------------|---|--------7----7-8-7----|---|
B||---------------------|---|--------------------|---|----------10-------10-|---|
G||--------4---4-5-4----|x4-|--------2---2-3-2---|x4-|--7-7-9---------------|x4-|
D||----------7-------7--|---|----------5-------5-|---|----------------------|---|
A||--5-5/7--------------|---|--3-3/5-------------|---|----------------------|---|
E||---------------------|---|--------------------|---|----------------------|---|

  --------5---5-6-5---|---|---------------------------------------------|
  ----------8-------8-|---|----------------7---7------------------------|
  --5-5-7-------------|x4-|------------------9----9-7-6-7-9-7-6h7p6-----|
  --------------------|---|--9--9-9-9-9-9---------------------------9---|
  --------------------|---|---------------------------------------------|
  --------------------|---|---------------------------------------------|

  ------------------------------------------|---------------------------------|
  ---------------5---5----------------------|---------------------------------|
  -----------------7----7p6--------7p6------|---------------------------------|
  --7--7-7-7-7-7------------9-9--7-----9-9--|--9--7---7-------------------7-9-|
  ------------------------------------------|-------9---9-7-------7---7-9-----|
  ------------------------------------------|---------------9-7-9---9---------|

  ------------------------|------------------|--12----------12------------------|
  ------------------------|-8h10...-8h10...--|-----10-10-10----10-10-10--12--10-|
  --7~-----------7~-------|------------------|----------------------------------|
  -----------7-9----------|------------------|----------------------------------|
  -------7-9--------------|------------------|----------------------------------|
  ------------------------|------------------|----------------------------------|


                             /---3---/
  ---------|-----------------------------------------|
  --12...--|--15-14-15-17-15-14h15p14----------------|
  ---------|--------------------------16-14-16>>>>---|
  ---------|-----------------------------------------|
  ---------|-----------------------------------------|
  ---------|-----------------------------------------|


  Nastavlja solo gitara 2

e||-----10-12-14-15-17-19--17-17p15-14-14----------------------------------|
B||--12------------------------------------17-17p15-14-14------------------|
G||--------------------------------------------------------16--14----------|
D||----------------------------------------------------------------17--16--|
A||------------------------------------------------------------------------|
E||------------------------------------------------------------------------|

   -----------------------------------------19^^-19p^^r-17-17-19-21^-21^r-19-|
   -------------------------10/12-10-12-12-----------------------------------|
   -------------9/11-9-11----------------------------------------------------|
   --9/11-9-11---------------------------------------------------------------|
   --------------------------------------------------------------------------|
   --------------------------------------------------------------------------|

    ~=vibrato
    h=hamer on
    p=pull off
   ^^=full bend
    ^=half bend
   >>=hold note (zadrzati ton)