Kraljevski Apartman - Jesen

Transkripcija: Nenad Djakovic ROCKERFRANCUZ


  Em                    D
  Jesen je duga hladna, padaju kise
  Am           C          D
  U mojoj kosi jedna seda vise

  Prolaze godine sve dok trepnes okom
  Kako vreme brzo leti nekim svojim tokom
  C     Hm     Em
  A ja, ja sam umoran o o o
  C     Hm     Am
  A ja, ja sam umoran

         G        D          Am        Em      Em D
  Kad bi mogao da vratim svoj zivot iz pocetka
  C      D        Em
  Bio bi isti kao sad
         G        D         Am          Em    Em D
  Da sam mogao da svatim da ljubav nije vecna
  C      D        Em
  Ne bi danas bio sam

  solo/skidan na akusticnoj gitari g=dizi zicu na gore
   E                       D                       G      D         E
  e-----------------------|-----------------------|----------------------|
  h-----------------------|-----------------------|----------------------|
  g---0--4g-4g-4g-2---2-4-|---0--4g-4g-4g-2-------|----2-----------------|
  d-2---------------5-----|-2---------------5-4-2-|-5----5-4----2-5--4-2-|
  a-----------------------|-----------------------|-----------5----------|
  e-----------------------|-----------------------|----------------------|
   E                       D                       C          H
  e-----------------------|-----------------------|----------------------|
  h-----------------------|------7-8-7---7-8-10---|-7-8-7------7-8-7-----|
  g---7--9g-9g-9g-7---7-9-|---7--------9--------9-|-------9----------9---|
  d-9---------------9-----|-9---------------------|---------10---------9-|
  a-----------------------|-----------------------|----------------------|
  e-----------------------|-----------------------|----------------------|
    E
  e------------------||
  h-12g-8-7-8--7-----||
  g--------------7-9-||
  d------------------||
  a------------------||
  e------------------||

  Pevam iz sveg srca, peva cu i dalje
  Samo tako bol u dusi moze da prestane
  Moj zivot je obicna prica kao mnoge druge
  Usponi i padovi kao vozne pruge
  A ja ja sam umoran..

  Kad bi mogao ...


***VERZIJA 2***
Transkripcija: Zoran Zdravkovic, Kraljevski Apartman
Poslao       : One Crimson Knight


Em                     Dsus2
Jesen je duga, hladna, padaju kise,
Amadd9         Cmaj7      Em7/9
a u mojoj kosi jedna seda vise.
Em             Dsus2
Prolaze godine i dok trepnes okom,
Amadd9               Cmaj7        Em7/9
kako vreme brzo leti nekim svojim tokom.

C     B      Em
A ja, ja sam umoran,
C     B      Am
a ja, ja sam umoran.

ref.
        G         D
Kad bih mogao da vratim
      Am    Em       E5, D5, C5
svoj zivot ispocetka,
        D5       Em
bio bih isti kao sad.
       G         D
Da sam mogao da shvatim
     Am        Em    E5, D5, C5
da ljubav nije vecna,
       D5        Em
ne bih danas bio sam.


Pevam iz sveg srca, pevacu i dalje,
Samo tako bol u dusi moze da prestane.
Moj zivot je obicna prica kao mnoge druge,
usponi i padovi kao vozne pruge.

A ja, ja sam umoran,
a ja, ja sam umoran.

refren


Dsus2      0320xx
Amadd9     005700
Cmaj7      000230
Em7/9      000450