Kraljevski Apartman - Ne Verujem U Lazne Andjele

Transkripcija: nenad djakovic rocker


uvod(ovde sam spojio prvu i drugu gitaru,pa ocenite kako vam zvuci):
e------0-1-----0-1-----0-1-----3.-1---0-1-----0-1-----0-1-----0-1-3-0-1-0-
h----3-------3-------3-------3-----3-------3-------3-------3-------------3
g--2-------2-------2-------2-------------2-------2-------2----------------
d-------------------------------------------------------------------------
a-------------------------------------------------------------------------
e-------------------------------------------------------------------------

1.gitara pratnja u strofi:
e-----0-1-----0-1-----0-1-----0-1-------0-1-----0-1----------------------
h---3-------3-------3-------3-----------------0--------------------------
g-2-------2-------2-------2-----------2-----0----------------------------
d-----------------------------------3----------------3--2-------------2--
a-----------------------------------------------------------5-3----3---3-
e----------------------------------------------------------------5-------
  Na tvome licu  osmeh andjela     U meni  vatra      crnog djavola


    Pruzas mi ruke
    Sa zlatnim prstima
    I vidim sunce
    (isto kao i u razlaganju samo pod distorzijom)
    U tvojim ocima

    (sad vec pocinje 2.gitara sa distorzijom a 1.nastavlja razlaganje)

    D
    Do ponoci jos par minuta
    F       G       (isto kao i u razlaganju samo pod distorzijom)
    Napolju vetar i mesec negde luta
    D
    Polako skidas svoja bela krila
    F       G     B         C
    Po meni letis kao dobra vila

    D            B      C   D
    Ne verujem u lazne andjele
    D            B      C   D
    Koji mi nocu u san dolaze

  deo posle refrena:
  e--------------------------------------------------------
  h--------------------------------------------------------
  g--9-7---------9-7---------7-5-7-5-4---------------------
  d--7-5-10-9-7--7-5-10-9-7--5-3-5-3-2-5-7---------3-------
  a-------8-7-5-------8-7-5------------3-5-----3-5---5-----
  e----------------------------------------3-5-------------

  e--------------------------------------------------------
  h--------------------------------------------------------
  g--9-7---------9-7---------7-5-7-5-4---------------------
  d--7-5-10-9-7--7-5-10-9-7--5-3-5-3-2-5-7-7-5-5-3---3-5---
  a-------8-7-5-------8-7-5------------3-5-5-3-3-1---1-3---
  e--------------------------------------------------------

  i sad se svira:D FF D FF D FF D FF D CD

    Lagano trljam oci svice dan
    O Boze,
    Dal je ovo bio samo san

    Po sobi trazim tvoje tragove
    F       G    F E   F G D (prelaz1)
    A vidim samo tamne zidoveee

  prelaz1
  e----------------------------
  h----------------------------
  g----------------------------
  d------------7------------7--
  a--8-7-5-----5--8-7-5-----5--
  e--------6-8----------6-8----

Pratnja za solo:D BABH CHCCisD


***VERZIJA 2***
Transkripcija: ???

Pesma je u D-molu

Intro - Razlaganje akorda
E||--------------------|
B||--------------5--6--|
G||-----------7--------|
D||--------7-----------|
A||-----5--------------|
E||--5-----------------|

Solo: intro lead
---|---------------|--------------------------|----||
---|--8b---6-------|-----5--6--8--5--6h-5-----|----||
---|----------7~---|--7--------------------7--|----||
---|---------------|--------------------------|----||
---|---------------|--------------------------|----||
---|---------------|--------------------------|----||

Na tvome licu osmeh andjela
U meni vatra crnog djavola
Pruzas mi ruke sa zlatnim prstima
I vidim sunce u tvojim ocima

Aaaa...aaaa

Do ponoci jos par minuta
Napolju vetar I mesec negde luta
Polako skidas svoja bela krila
U meni lebdis kao dobra vila

Ne verujem u lazne andjele
Koji mi nocu u san dolaze

Lagano trljam oci
Svice dan
O boze
Da li je ovo bio samo san?

Po sobi trazim tvoje tragove
A vidim samo tamne zidove

Korisceni akordi u pesmi Dm,Bb,C, ali kroz pesmu se sviraju vecinom
bar-akordi D5,A#5,C, ko zna pesmu znace o cemu se radi.
Pesma je inace tipican iron maiden stil.