Kraljevski Apartman - Nikad Se Ne Predajem

Transkripcija: nenad djakovic rocker


e----------------------------------------------------------------------
h----------------------------------------------------------------------
g----------------------------------------------------------------------
d-5-5-5-----3------------------------5-5-5-----3-----------------------
a-3-3-3-5-6---6-5---6-6-6-6-5-6-5----3-3-3-5-6---6-5---6-6-6-6-5-6-5---
e-----------------6-4-4-4---------4------------------6-4-4-4---------4-

  punjenje u C solo tema: C-DisDDis-Gis Gis-DisDDis-C

  C
  Ko su ljudi a ko su zveri
  C
  ci mac nam sudbinu deli
  Gis
  kome smes ti jos da verujes

  deo1
  e----------------------
  h----------------------
  g----------------------
  d-------1---------1-3--
  a-1-3-3---3-3-1-3------
  e----------------------

  C
  Kome bogu da se molis
  C
  protiv koga da se boris
  Gis                     deo1
  vuci su gladni oko nas

  Gis                 B-CC-B-CC-B-CC-B-CC
  I kad je hladno oko srca
  Gis          B-CC-B-CC-B-CC-  C D
  kao led koji puca

  Dis         DisDisFDis B
  Potrazi dugu           potrazi boje
  G                  Gis      B        Dis D Dis
  jer negde se kriju i moje i tvoje

  C
  Stegni me jako nocas tvoja senka postajem
  Gis     B           C         Gis G
  i nikad nikad se ne predajem

  BC
   Nemoj da stanes na pola puta
  BC
   tvoj san nesme da luta
   Gis   B        C      deo1
   moras sama da odlucis
  BC
   Kome bogu da se molis
  BC
   protiv koga da se boris
   Gis      B         C
   vuci su i dalje oko nas

   Stegni me jako... 4x refren i pesma se zavrsava:

  e----------------------
  h----------------------
  g----------------------
  d-------------------5--
  a------6-5--6-5-3---3--
  e--4-3------------6----