Kraljevski Apartman - Ruka Pravde

Album        : Ruka pravde
Transkripcija: Djolle


Intro razlaganje:
e--7-----7----7------8------8----8------7-----7----7---------- |
H----8-----8----8------8------8----8------7-----7----7-------- |
G------9----------9------9-----------9------8----------8------ |
D------------------------------------------------------------- |
A---------------------------------------6--------------------- |
E--0-----------------0---------------------------------------- |
                                                               |  2X
-------------------------------------------------------------- |
---5---7---8---10---8---7---5/7\5---4------------------------- |
-------------------------------------------------------------- |
-------------------------------------------------------------- |
---7---9---10--12---10--9---7/9\7---6------------------------- |
-------------------------------------------------------------- |

Intro solo:
e----------7-------------------------------------------------- |
H--------8---8-7h8p7---------7-------------------------------- |
G------9-------------9---8-9---9---9-8-----------8------------ | 2x
D----9----------------------------------10---9-10-10-9-7-9---- |
A--7---------------------------------------------------------- |
E------------------------------------------------------------- |

pa
e-------------------------------------------------------------------- |
H----------------------------------------------------------10-10/12~- |
G-------8--------------8--------------8--------------8--------------- |
D---9-10-10-9-7-7--9-10-10-9-7-9--9-10-10-9-7-7--9-10-10-9----------- |
A-------------------------------------------------------------------- |
E-------------------------------------------------------------------- |

glavna tema (riff 1):
e-------------------------------------------------------------- |
H-------------------------------------------------------------- |
G-------------------------------------------------------------- |
D--22222-222--22222-222--33333-333--33333-333------------------ |
A--22222-222--22222-222--33333-333--33333-333--3-2-0----------- |
E--00000-000--00000-000--11111-111--11111-111--------3-1------- |


riff 1
Ne tako davno po ovoj zemlji
gazili su ratnici.
Cuvari hrama, do samog kraja
hrabro su se branili.

C5            A5      H5        E5
Ostri macevi, nebeske munje bez nade
C5              A5      H5   E5     D5
u telu gromovi, celicna ruka pravde
  G F# D   E     F# D   G F# D   C
i noci bez snaaa aa aa, noci bez sna
nek nas BOG SACUVA!!!

Ja nisam od onih koji mole,
koji traze oprostaj.
Ja nisam od onih koji se kriju,
ratnik ne zaboravlja.

Ostri macevi, nebeske munje bez nade
u telu gromovi, celicna ruka pravde
i noci bez sna, noci bez sna
nek nas BOG SACUVA!!!