Kraljevski Apartman - Slomljeno Srce

Album        : Izgubljen u vremenu
Transkripcija: Djolle



e----------0---------------0--------------0--------------0------
H------1-0---0---------1-0---0--------3-0---3--------1-0---0----
G--------------2-----2---------2----4---------0--------------2--  2X
D----2-------------3--------------5----------------2------------
A--0---------------------------------------------0--------------
E---------------------------------------------------------------

kao uvod

Odlazim iz rodnog grada
usta puna gorcine
Ostavljam iza sebe
samo maglu od prasine

Noc je hladna kao led,
hladna i prokleta
i nikog nema
niko mi i ne treba.

Riff 1
e------------------------------------------
H------------------------------------------
G------------------------------------------
D------------------------------------------
A-3p0-0--3p0-0--3p0-0-3p0-0--3h5-5---------
E------------------------------------------

e------------------------------------------
H------------------------------------------
G------------------------------------------
D------------------------------------------
A-3p0-0--3p0-0--3p0-0-3p0-0----------------
E----------------------------3-1-1---------

e------------------------------------------
H------------------------------------------
G------------------------------------------
D------------------------------------------
A-3p0-0--3p0-0--3p0-0-3p0-0--3h5-5---------
E------------------------------------------

e------------------------------------------
H------------------------------------------
G----------------------/14-14\--/14-14\----
D----------------------/14-14\--/14-14\----
A-3p0-0--3p0-0--3p0-0----------------------
E------------------------------------------

Riff 1
Slomila si moje srce
nisi ni trepnula
sada trazim jedini put
koji nisi unistila.

C       D           A
Neka me nose divlji vetrovi
C    D           E     fill A-7-7-7-8-7-------
neka liju olujne kise       E----------8-7-5--

A
Slomila si moje srce
slomila si moje telo
G          D
al dusu ti nedam
      A
da mi uzmes.

A-----------3-5---
E-0-3-0-5-0-----5-

A
Slomila si moje srce
F
slomila si moje telo
D
al dusu ti nedam
      E
da mi uzmes.