Kraljevski Apartman - Zacaran Krug

Transkripcija: tikvica89@yahoo.com



(intro)
E|---------------------------------------------------------|
H|------6---------------6-8--------6-------10-10-10-11-10p-|
G|--7-9---9-7-6-7---7-9----7p---7-9--9-7-6-----------------|
D|-7---------------7----------7----------------------------|
A|---------------------------------------------------------|
E|---------------------------------------------------------|

E|-------------------------------|
H|----3~4-3---------3-4-6-3~4-3p-|
G|-4-5-----5-4-5p--5-------------|
D|-------------------------------|
A|-------------------------------|
E|-------------------------------|


(intro)
Ja sam tvoj put,
kroz tamne oblake.
Koji kriju mnoge poraze.
Ja sam kao vetar,
koji nosi miran san.

Znam da znas,
gde se krije istina.
Iza kojih vrata,
tvoja sudbina.
Znam da znas,
kada se knjiga zatvara.

D5       C5           B5
Znam, ja znam, da je bol
       A5     D5
veca kada si sam.
              C5
I kad nemas nikoga,
          B5    A5      D5
ko ce s tobom tajne da cuva.

Prelaz,Solo:
  D5                           C5            D5 B5A5B5A5
E---------------------------------------------------------
H----10-8----------10-8----------8------7-10--------------
G-7p------10-9-7-7p-----10-9-7--5-10-9-7-----7p-3~2~3~2---
D---------------------------------------------------------
A---------------------------------------------------------
E--------------------------------------------------------- 2x

D5
Pokazi nocas pravo lice,
izbaci iz glave crne ptice,
C5                 D5   B5A5B5A5
koje te odvlace u mrak.
D5
Ja sam na tvojoj strani,
uzmi dah i samo stani,
C5              D5
dosta je bilo poraza.
C5
Vidis da se kisa sprema,
                   D5
negde grmi, negde seva.
C5
Munje nebom paraju,
               D5
munje nebom vladaju.

Ostavi proslost iza sebe,
teski su dani iza tebe,
svemu mora doci jednom kraj.
I kad sutra prodje sve,
kad crne ptice odlete,
nestace i tvoj ruzan san.
D5
Ova je noc tvoj zacaran krug,
     C5             B5        A5
ti stojis u mraku a ja imam kljuc.
Ja sam tvoj izlaz iz dubokog sna,
gde god da si ti tu sam i ja.

Ostavi proslost iza sebe,
teski su dani iza tebe,
svemu mora doci jednom kraj.
Ova je noc tvoj zacaran krug,
ti stojis u mraku a ja imam kljuc.
Ja sam tvoj izlaz iz dubokog sna,
gde god da si ti tu sam i ja. }2x