Kud Idijoti - Za Tebe

Transkripcija: D.Brkic


Uvod
Gm B C D#

G5
kad srce radi bim-bam bam-bam-bam,
B5
sve drugo je manje vazno,
C5                   G5
ne zelim pjevati, ne zelim plesati

kad srce radi bim-bam bam-bam-bam,
sve drugo je manje vazno,
svaka fontana srece je premala za mene

D5        D5#            C5
samo zelim da si sa mnom ti
svaki dan i svaki tren
F5
o ho ho

B5                  F5
sjedim ispred kino zagreba,
svjetlo sja iz izloga
trombociti jure zilama,
C5         D5#
a tebe jos nema

znoje mi se dlanovi,
oko mene je grupa cikova,
gledam niz ulicu,
         B5
jos nema te

solo:
                  G5             C5               G5             D5
e-----------------------------------------------------------------------------10--
h--------------------------------------------------------------------------8--8--x
g----------7-------------7x-----------------------------7x-----------7--10--------
d-----8-10---10-8-----------10-8-10x----s12x-10-8----------10-8--10---------------
a--10-------------10x-----------------------------10x-----------------------------
e---------------------------------------------------------------------------------

x puno puta

kad srce radi bim-bam bam-bam-bam,
sve drugo je manje vazno,
ne zelim pjevati, ne zelim plesati

kad srce radi bim-bam bam-bam-bam,
sve drugo je manje vazno,
svaka fontana srece je premala za mene

samo zelim da si sa mnom ti,
svaki dan i svaki tren
o-ho-ho

sjedim ispred kino zagreba,
svjetlo sja iz izloga,
trombociti jure zilama,
a tebe jos nema

znoje mi se dlanovi,
oko mene je grupa cikova,
gledam niz ulicu,
jos nema te

G5               C5
bi-ba-bam za tebe hej hej

                  D5
d--8-7-5----------7--
a--------8-6-4-3--5--
e--------------------
                  za tebe
KRAJ
|D#5    |D5  |
|D#5   |D5|C5|B5|G5|



***VERZIJA 2***
Transkripcija: Simovic Tihomir (simovic031@ptt.yu)
Album        : Tako je govorio Zaratusta
Home         : http://2akordi.net


F#m
Kad srce radi bim-bam, bam-bam-bam
A
Sve drugo je manje vazno
Hm                  F#m
Ne zelim pjevati ne zelim plesati.

Kad srce radi bim-bam, bam-bam-bam
Sve drugo je manje vazno
Svaka fontana srece je premala za mene

C#       D               Hm
Samo zelim da si sa mnom ti
Svaki dan i svaki tren...

E
O-ho-ho
A		     E
Sjedim ispred kino "Zagreba"
     A         E
Svjetlo sja iz izloga
      A         E
Trombociti jure zilama
  Hm       D
A tebe jos nema
A            E
Znoje mi se dlanovi
    A             E
Oko mene je grupa cikova
Hm         D              A
Gledam niz ulicu jos nema te...


F#m          Hm
Bi ba-bam za tebe, hej hej!
Hm C#
     Za tebe!

To bi bilo sve.Sve primedbe ili korekcije mozete mi poslat na
simovic031@ptt.yu



***VERZIJA 3***
Transkripcija: Vanja Cerimagic (fur_immer_punk@hotmail.com)
Home         : http://2akordi.net


intro:g--B--c--d#

G5
kad srce radi bim-bam bam-bam-bam,
B5
sve drugo je manje vazno,
C5                   G5
ne zelim pjevati, ne zelim plesati

kad srce radi bim-bam bam-bam-bam,
sve drugo je manje vazno,
svaka fontana srece je premala za mene

D5        D5#            C5
samo zelim da si sa mnom ti
svaki dan i svaki tren
F5
o-ho-ho

B5                  F5
sjedim ispred kino zagreba,
svjetlo sja iz izloga
trombociti jure zilama,
C5         D5#
a tebe jos nema

znoje mi se dlanovi,
oko mene je grupa cikova,
gledam niz ulicu,
         B5
jos nema te

ritam dalje ide:
G5  C5  G5  D5

kad srce radi bim-bam bam-bam-bam,
sve drugo je manje vazno,
ne zelim pjevati, ne zelim plesati

kad srce radi bim-bam bam-bam-bam,
sve drugo je manje vazno,
svaka fontana srece je premala za mene

samo zelim da si sa mnom ti,
svaki dan i svaki tren
o-ho-ho

sjedim ispred kino zagreba,
svjetlo sja iz izloga,
trombociti jure zilama,
a tebe jos nema

znoje mi se dlanovi,
oko mene je grupa cikova,
gledam niz ulicu,
jos nema te

G5               C5
bi-ba-bam za tebe hej hej
B5A5G5F5D5#C5#C5  D5
                  za tebe

END.

***VERZIJA 4***
Transkripcija: dUcA
               http://yutablature.dzaba.com



Intro:  Gm  A#  Cm  D#

Gm...

           Gm
Verse: Kad srce radi bim-bam, bam-bam-bam
A#
  Sve drugo je manje vazno
Cm                     Gm
  Ne zelim pjevati, ne zelim plesati

    Gm
Kad srce radi bim-bam, bam-bam-bam
A#
  Sve drugo je manje vazno
Cm                       Gm
  Svaka fontana srece je premala za mene

       D          D#              Cm
Inter:  Samo zelim da si sa mnom... ti...
Svaki dan i svaki tren...
F
  O-ho-ho

        A#                 F
Chorus: Sjedim ispred kino "Zagreba"
A#             F
Svjetlo sja iz izloga
A#              F
Trombociti jure zilama
    Cm       D#
Ali tebe jos nema

A#          F
Znoje mi se dlanovi
    A#            F
Oko mene je grupa cikova
Cm         D
Gledam niz ulicu
         A#
Jos nema te


Trans:         Gm           Cm
e------------------3-3-3-3-3------------3-3-3-3-3---|
H---3--1-----------3-3-3-3-3---3--1-----4-4-4-4-4---|
G---------3--------3-3-3-3-3---------3--5-5-5-5-5---|
D------------------5-5-5-5-5------------5-5-5-5-5---|
A------------------5-5-5-5-5------------3-3-3-3-3---|
E------------------3-3-3-5-3------------------------|

           Gm
e------------------3-3-3-3-3---------------------11-11-11-11-|
H---3--1-----------3-3-3-3-3---3--1-----1/3/6/10-10-10-10-10-|
G---------3--------3-3-3-3-3---------3-----------------------|
D------------------5-5-5-5-5---------------------------------|
A------------------5-5-5-5-5---------------------------------|
E------------------3-3-3-5-3---------------------------------|


Verse, Inter, Chorus

       Gm              Cm
Outro:  Bim-bam-bam za tebe hej hej
Gm               Cm
  Bim-bam-bam za tebe hej hej
Gm       Cm
  Bim-bam-bam za tebe hej hej
Gm       Cm
  Bim-bam-bam za tebe hej hej

e-----------------|
H---4--3--1-------|
G------------3--1-|
D-----------------|
A-----------------|
E-----------------|

Cm  D   Za tebe

Bim-bam-bam za tebe hej hej
Bim-bam-bam za tebe hej hej
Bim-bam-bam za tebe hej hej
Bim-bam-bam za tebe hej hej

e-----------------|
H---4--3--1-------|
G------------3--1-|
D-----------------|
A-----------------|
E-----------------|

Cm  D   Za tebe

Gm       Cm
  Bim-bam-bam za tebe hej hej
Gm       Cm
  Bim-bam-bam za tebe hej hej
Gm       Cm
  Bim-bam-bam za tebe hej hej
Gm       Cm
  Bim-bam-bam za tebe hej hej
Gm       Cm
  Bim-bam-bam za tebe hej hej
Gm       Cm
  Bim-bam-bam za tebe hej hej

D#       D

e-----------------|
H---4--3--1-------|
G------------3--1-|
D-----------------|
A-----------------|
E-----------------|

Gm


Chordovi (svi su sa bare-om):
Gm  355333
A#  X13331
Cm  X35543
D   X57775
D#  X68886
F   133211

Komentar: skoro cela pesma se svira veoma brzim downstroke-om...
          predlazem  da  je  poslusate  pre  svirke (ima je i na
          vozdra.net-u)...