Kuguars, The - Gde Si, Bre, Covece

Transkripcija: KamenZaPete



  Strofa:

     C               Fmaj7   F
  Na zelenoj klupi u hladnom parku
      G          G7       C
  vec mesec dana sedim ja potpuno sam
  C              Fmaj7    F
  ptica mi trazi nesto za klopu
      G       G7          C
  ali ja osim pesme nemam sta da dam
  i zato



  Refren:

C             Fmaj7 F
  Gledam te i pitam se
  G      G7  C
  gde si bre golube
  C             Fmaj7 F
  ja te volim i ti me volis
     G          G7    C
  pa hajde onda da se zezamo

C             Fmaj7 F
  Gledam te i pitam se
  G      G7  C
  gde si bre golube
  C             Fmaj7 F
  ja te volim i ti me volis
     G          G7    C
  pa hajde onda da se zezamo


   Solo:
  e:-||-------------------------------------------------
  h:-||-------------5-------------6---/8-8-8-6-------5--
  g:-||--55-5-4-5-7---7-5-4---5/7---------------5-7-----
  D:-||---------------------7---------------------------
  A:-||-------------------------------------------------
  E:-||-------------------------------------------------

  e:-||-------------------------------7-8/10--8h10p8----8-----------------
  h:-||--------------------------8-10----------------10---10-8------------
  g:-||-------------------7-9-10-------------------------------9-7----7---
  D:-||------------7-9-10------------------------------------------10-----
  A:-||-------7-10--------------------------------------------------------
  E:-||--8-10-------------------------------------------------------------

  e:-||------------------------------------
  h:-||------------------------------------
  g:-||--/7---------/7------------(7)------
  D:-||-----10-7-10----10-----(10)---(10)--
  A:-||------------------------------------
  E:-||------------------------------------

  e:-||------------------------------------------------------
  h:-||--------5--5-----6--5h6p5--------5---------5-8--------
  g:-||--4/5-7----'-7-7----------7--5-5---7-5---7--------5---
  D:-||-------------'---------------5-5----------------7---7-
  A:-||-----------------------------'-'----------------------
  E:-||------------------------------------------------------

  e:-||------------------5-8--5------------------------------
  h:-||--5-5-8--5------6--------8-6---/8--8-6--6-6-5---------
  g:-||--'--------7-5--------------------------------7-5-----
  D:-||------------------------------------------------------
  A:-||------------------------------------------------------
  E:-||------------------------------------------------------


  Strofa:

  Iznenada s moje leve  strane
  spazih covu kako sedi, cita novine
  ja mu reko': 'Nemoj vid da kvaris
  novine su samo za pokrivanje!'
  i zato


  Refren:

  Gledam te i pitam se
  gde si bre covece
  ja te volim i ti me volis
  pa hajde onda da se zezamo

  Gledam te i pitam se
  gde si bre covece
  ja te volim i ti me volis
  pa hajde onda da se zezamo


  Kraj(ad lib):

  Hajde amo da se zezamo
  hajde amo da se zezamo
  hajde, hajde da se zezamo
  hajde da se zezamo


Korisceni hvatovi:
===================
C      x 3 2 0 1 0
F      1 3 3 2 1 1
Fmaj7  x 3 3 2 1 0
G      3 2 0 0 0 3
G7     3 2 0 0 0 1
===================