Kuguars, The - Leptiricu

Transkripcija: haris
Poslao       : tarik



Riff1 (Smoke on the water)
e----------------------------------------------------------------------|
h----------------------------------------------------------------------|
g----3-5-----3-6-5-----3-5--3------------------------------------------|
d--5-3-5---5-3-6-5---5-3-5--3-5----------------------------------------|
a--5-------5---------5--------5----------------------------------------|
e----------------------------------------------------------------------|

Riff2 (ja bih dos'o al' se bojim...)
e----------------------------------------------------------------------|
h----------------------------------------------------------------------|
g--------5-3-----------------------------------------------------------|
d--------5-3--3-3--5-5-------------------------------------------------|
a-5--5-5------1-1--3-3--5----------------------------------------------|
e-3--3-3----------------3----------------------------------------------|

Riff3 - Refren
e----------------------------------------------------------------------|
h----------------------------------------------------------------------|
g----------------------------------------------------------------------|
d-5---3----------------------------------------------------------------|
a-3---1---5-----------1---1--------------------------------------------|
e---------3---------3---3---3-1-3--------------------------------------|

Solo
e----------------------------------------------------------------------|
h--6-6----------------------8---------8-8-7----------------------------|
g--7-7-------7-7---------9----9-7-----------9-7-9-7---7-------------7--|
d------8-5-------9----------------------------------9---10-9-7-9-10----|
a------------------10--------------------------------------------------|
e----------------------------------------------------------------------|

e----------------------------------------------------------------------|
h--7h8p7h8p7h8p7-------------------------------------------------------|
g-----------------9-7h9p7h9p7h9p7-----7h9p7h9p7h9p7--------------------|
d----------------------------------9-----------------9-----------------|
a--------------------------------------------------------5-5-----------|
e--------------------------------------------------------3-3-----------|

Ritam za solo
e----------------------------------------------------------------------|
h----------------------------------------------------------------------|
g----------------------------------------------------------------------|
d-------------5-5---------5-5---------7-7---------5-5---------7-7------|
a-5-5---5-5---3-3---5-5---3-3---5-5---5-5---5-5---3-3---5-5---5-5---5-5|
e-3-3---3-3---------3-3---------3-3---------3-3---------3-3---------3-3|


leptiricu sarenicu 
dodji meni amo,
evo imam jednu ruzu 
pomirisi samo.

ja bi doso al se bojim...