Laufer - Dio Tebe

Transkripcija: ???
Poslao       : Mario (marioloncar@freemail.com)
Home         : http://fly.cc.fer.hr/~janje


E                 A
Srce puno rijeci, suze govore
E                   A
Nestali snovi ljube kao koprive
E                     A
Koliko na svijetu ima malo mostova
E                  A
Sami kao otoci sto more razdvaja
       C#m          B
Kazes, uvijek ovdje blizu mene
G#m         A
Postoji jos dio tebe.


Kilometri pricaju najtuznije price
Greske kao pijesak vjetar nosi u lice
Tisina postaje moj jedini zvuk
Kao prazna boca ostavljen na dnu
Kazes, uvijek ovdje blizu mene
Postoji jos dio tebe.


  E        G(sus4)  A(sus4)
Cijeli svijet stane na moj dlan
      C
Tonem dublje za jos jedan dan
              D
Dublje za jos jedan dan.


Na zlatnom tepihu prosutih zvijezda
Zelje nam postaju glasnije od smijeha
Koliko na svijetu ima malo mostova
Sami kao otoci sto more razdvaja
Kazes, uvijek ovdje blizu mene
Postoji jos dio tebe.

Cijeli svijet stane na moj dlan
Tonem dublje za jos jedan dan
Dublje za jos jedan dan.
        

***VERZIJA 2***
Transkripcija: AresIV - shupa9@gmail.com


Uvod:
e---------------------------------------------0-----0--------|
B-----------------------------------------------0-----0------|
G--------4-4/6---6-4---------------4-4--2-2-------2-----2----|
D---2-2--4-4/6---6-4--6/7/6---2-2--4-4--2-2------------------|
A---2-2--2-2/4---4-2--6/7/6---2-2--2-2--0-0------------------|
E---0-0---------------4/5/4---0-0----------------------------|


 E                 A
Srce puno rijeci, suze govore
Nestali snovi ljube kao koprive
Koliko na svijetu ima malo mostova
Sami kao otoci sto more razdvaja

      C#5          B5          G#5
Kazes, uvijek ovdje blizu mene
           A5
Postoji jos dio tebe.


Kilometri pricaju najtuznije price
Greske kao pijesak vjetar nosi u lice
Tisina postaje moj jedini zvuk
Kao prazna boca ostavljen na dnu

Kazes, uvijek ovdje blizu mene
Postoji jos dio tebe.


E       G           A
Cijeli svijet stane na moj dlan      (2x)
        C
Tonem dublje za jos jedan dan
                D
Dublje za jos jedan dan.

Uvod 2X

Na zlatnom tepihu prosutih zvijezda
Zelje nam postaju glasnije od smijeha
Koliko na svijetu ima malo mostova
Sami kao otoci sto more razdvaja

Kazes, uvijek ovdje blizu mene
Postoji jos dio tebe.


E       G           A
Cijeli svijet stane na moj dlan      (2x)
        C
Tonem dublje za jos jedan dan
                D
Dublje za jos jedan dan

 E     G      A        C
Yeah, yeah, yeeeaeeaaaaaah


SOLO:

03:51
  C       C       C       C       C        D       D       E      E
e---------------------------------------------------------------------|
B---5/10---------8---------5/8------------8/10------------3/5---------|
G---------------------------------------------------------------------|
D---------------------------------------------------------------------|
A---------------------------------------------------------------------|
E---------------------------------------------------------------------|
   E       E       G       G       G       G      A      A      A
e---------------------------------------------------------------------|
B---3/5-----------3p0h3-----------3/5------------5/8------------------|
G---------------------------------------------------------------------|
D---------------------------------------------------------------------|
A---------------------------------------------------------------------|
E---------------------------------------------------------------------|
    A       A       C      C      C      C      C       C
e---------------------------------------------------------------------|
B-----8/10----------8------------8/10/8----------5--------------------|
G---------------------------------------------------------------------|
D---------------------------------------------------------------------|
A---------------------------------------------------------------------|
E---------------------------------------------------------------------|
04:16
    E               A               E             A
e---------------------------------------------------------------------|
B----5/12----------12/9------------9/7-----------7/9/5----------------|
G---------------------------------------------------------------------|
D---------------------------------------------------------------------|
A---------------------------------------------------------------------|
E---------------------------------------------------------------------|