Letu Stuke - Sutis

Transkripcija: gospodin


Intro: C,G,C,G,Am,Bm
       C,G,C,G,Am,Em

D            G
Ti si najbolja
D            G
kad si slobodna.
D              G
U tvom svijetu sve
Am        Em
radi za tebe.

D         G
U visine put,
D         G
siguran i brz.
D           G
Dat ce supermen
Am          Em
sve raspamecen,
za tobom.

C       G           C     G
Sutis svaki put kad zovem te
         Am  Bm
sa druge obale.
C      G
Nijema si i gluha,
C   G          Am  Em
oci su te same odale.

C,G,C,G,Am,Bm
C,G,C,G,Am,Em

D            G
Da promjenis lik,
D          G
ti si umjetnik.
D               G
Kad sam svoj na svom
Am          Em
nebeski sam grom.

D             G
Ljubav, to je glad
D       G
neutaziva.
D          G
Plemenita, mocna
Am       Em
i samoziva.


Refren: 2x

              D
Noci su preduge,
            C
suze od stakla.
             Bm              C
Sigurno ne znas da tvoje su bas
          D               C
dok ti se nemir u snovima vraca.
       Bm  C
Ti uzivas.


Refren: 2x

C   G C   G Am  Bm
Sutis,Sutis,Sutis
C    G C  G Am  Em
bistru vodu mutis.


***VERZIJA 2***
Transkripcija: Knezevic


Intro: C,G,Em,C,G,Em,C,G,Em,G,Am,Em,Am,G,Em x2

D            G
Ti si najbolja
D            G
kad si slobodna.
D              G
U tvom svijetu sve
Am        Em
radi za tebe.

D         G
U visine put,
D         G
siguran i brz.
D           G
Dat ce supermen
Am          Em
sve raspamecen,
za tobom.

C  G  Em C  G   Em  C G   Em
Sutis svaki put kad zovem te
G  Am Em Am G Em
sa druge o--bale.
C   G  Em C G  Em
Nijema si i gluha,
C G  Em G  Am Em Am G Em
o-ci su te sa-me o--dale.

c,G,Em,C,G,Em,C,G,Em,G,Am,Em,Am,G,Em x2

D            G
Da promjenis lik,
D          G
ti si umjetnik.
D               G
Kad sam svoj na svom
Am          Em
nebeski sam grom.

D             G
Ljubav, to je glad
D       G
neutaziva.
D          G
Plemenita, mocna
Am       Em
i samoziva.


Refren: 2x

              D
Noci su preduge,
            C
suze od stakla.
             Bm              C
Sigurno ne znas da tvoje su bas
          D               C
dok ti se nemir u snovima vraca.
       Bm  C
Ti uzivas.


Refren: 2x

C   G C   G Am  Bm
Sutis,Sutis,Sutis
C    G C  G Am  Em
bistru vodu mutis.

Evo i solo na koji se svira tokom refrena.

e|-7r8-7-3--7-8-3-8r7-7-3--5r7r5-5-3-5-7-7-7r8-7-3--7-8-3-8r7-7-3--5r7r5-5-3-5-3-0


***VERZIJA 3***
Transkripcija: flyer

Uvod:
E-----------------------------------------------------
H-----------------------------------------------------
G-----------------------------------------------------
D---9s10s9----9s10s9----9s10s9----9--7----7-9-9-------
A----------10--------10--------10------10-------------
E-----------------------------------------------------

E-----------------------------------------------------
H-----------------------------------------------------
G-----------------------------------------------------
D---9s10s9----9s10s9----9s10s9----9--7-----7----------
A----------10--------10--------10------10----10--7----
E-----------------------------------------------------