Lisac Josipa - O Jednoj Mladosti

Album        : Dnevnik jedne ljubavi (1973.), Live in Lap (1992.)
Reizdanja    : Antologija Josipe LIsac Vol. II i VII
Transkripcija: ivan3,   a38@net.hr


Ritam: 6/8

Uvod:
 Dm
|---------------------5------|--------------------5--1--|
|--------3h5p3h5p3-----------|-------3h5p3h5p3----------|
|o----2--(thrill)--2---------|----2--(thrill)--2-------o|(2x)
|o-0--------------------0h2p0|-0-----------------------o|
|----------------------------|--------------------------|
|----------------------------|--------------------------|


Dm (kao uvod)
Jedna mladost, jedan svijet nade
Gm          Dm
Raste tiho u srcu tvom
                           Gm
Drugi za te ovaj svijet grade
     C        F
S malo prave istine u tom

       A7
Pricaju ti price te
        Dm    G                  > verzija "live in LAP":  Dm  C  G/H
I svaka ima svoj sretan kraj
  Dm
Al' presucuju da taj svijet krade
A7    Dm
Bas tvog sunca sjaj


Jedna mladost, jedan san srece
Al' do nje jos dalek, dug put
I dok srce na svoj put krece
U taj svijet ocvao i zut

Odjednom ces shvatit sve
Kako nigdje nema plamena tvog
Poput mrtve rijeke svijet tece
A7   D
Bez cilja svog

Refren:
(D)        G/D              D
Tko zna, mozda na me ceka neki drugi svijet
           G/D    A           D
Tko zna, i u mraku katkad nikne divan cvijet
G               Bb
Mozda, tko zna, jedna od sretnih
   F          C             G
Jedna od tisucu bit cu bas ja
          Asus4 A7
Tko da zna


-Verses -samo instrumental-


-Refren- pjevano

   Dm
...Tko da zna


---------------------------------------------

Prebiranje zica u prva dva stiha refrena (sve note su 16-inke):

 D                           G/D                         A
|---10----10----10----10---| ---10----10----10----10---| -----12----------12------|
|-----10----10----10----10-| -----12----12----12----12-| -------14----------14----|
|-------11----------11-----| -------12----------12-----| ---------14----------14--|
|-0------------0-----------| -0------------0-----------| -------------------------|
|--------------------------| --------------------------| -0-----------------------|
|--------------------------| --------------------------| -------------------------|


Osim toga, kroz cijelu pjesmu ide dobro staro prebiranje (8-inke):

|-----------1--------|
|--------3-----3-----|
|-----2-----------2--|   itd.
|(bas)---------------|
|--------------------|
|--------------------


-----------------------------------------------

"Live in LAP" verzija

Mnogo jednostavnije odsvirana. Malo drugaciji uvod, kroz strofe se prebiru 8-inke
kao po onom gore uzorku a u refrenu ide obican strumming.
Za sviranje laksa live, a za slusanje studijska verzija. ;)


Uvod: Dm
|----------0-----1--|
|-------3-----3-----|
|----2--------------|
|-0-----------------|
|-------------------|
|-------------------|


p.s. kako god okrenes zakon za sviranje na akusticnoj.