Macbeth - Bila Je Lijepa

Transkripcija: Damir Karakas (deccko@hotmail.com)
Home         : http://2akordi.net


UVOD :	G,Am,C,G,am

Am
Bila je lijepa , lijepa poput obecanja 
                                C
Pamtim svaki dan zabavljana rijeci 
                        G
Cini mi se svake sjetim se 
         F        Am        
Ali nema nje kraj mene 

Kazu prosla je kroz mnogo toga 
Nasla utociste je kod boga 
Trazim nocas pred tim vratima 
Sam ja i molim da mi je da 

REF : 
  C                             G
Sada kad bi mogo biti stobo kao nekad 
C                   G
Da mi te vrati samo jedan dan 
C                     G
Da svu ljubav sto sam drugi samo tebi dam
      F                 Am
 i da tebi samo tebi pripadam   

Bila je lijpa ... 

________
KOMENTAR: Miralem Batlak
          Akordi su: F#m A E D F#m i u refrenu A E 3x D E F#m

***VERZIJA 2***
Transkripcija: Miralem Batlak

SOLO:
1:42                                                                 1:59
e---------------------------5-4-----------------------------------------|
B-----5-5------------------5---5------5-5---------------------2---------|
G-5s6----7-6-4---------5s6-------6-4-6---7-6-4----------2--1-4-2p1------|
D-------------7-6-4-2-------------------------7-6-4-2--4-4------------4-|
A-----------------------------------------------------------------------|
E-----------------------------------------------------------------------|

3:16                                                            3:33
e-----------4-5-7-5-4----------|-9-12 12--17-16------5--4-7-9-5p4--|
B-5-77-7-5-7---------7-5-------|---------------17---7-7----------7-|
G-------------------------(2x)-|-----------------------------------|
D------------------------------|-----------------------------------|
A------------------------------|-----------------------------------|
E------------------------------|-----------------------------------|