Mance - Dva

Transkripcija: SkaR - rudolf.jurisic@ck.hinet.hr


E|-------------------------------------------------|
B|-------------------------------------------------|
C|-------------------------2----0-----------5------|
D|--4h5--4--5--4-----------0-------4--------3------|
A|--5----5--5--5----------------------0-1----------|
E|-------------------------------------------------|

E|-------------------------------------------------|
B|-------------------------------------------------|
C|-----------------2----0------------------5--4----|
D|--4h5--4--5--4---0-------4---------------3--2----|
A|--5----5--5--5--------------0-1------------------|
E|-------------------------------------------------|

E|-------------------------------------------------|
B|-------------------------------------------------|
C|----------------(2x)-----------------------------|
D|--4\---|-0h2-2--0h2-2--0h2-|---------------------|
A|--2\---|-0---0--0---0--0---|---------------------|
E|-------------------------------------------------|

*naglaseno

E|----------------------------------|
B|----------------------------------|
C|--*-----*-----*---*-----*-----*---|  
D|--2-2-2-2-2-2-2-0-5-5-5-5-5-5-5-5-|
A|--0-0-0-0-0-0-0-0-3-3-3-3-3-3-3-0-|
E|----------------------------------|
       Ima jedan  broj


E|----------------------------------|
B|----------------------------------|
C|-*-----*-----*---*-----*-----*----|
D|-7-7-7-7-7-7-7-7-1010101010101010-|
A|-5-5-5-5-5-5-5-0-8-8-8-8-8-8-8-0--|
E|----------------------------------|
    A djeljiv...sa pet


itd.


Prijelaz:
E|-----------------------------------------|
B|-----------------------------------------|
C|(10)/12-12-12-12-12-12-12--5-5-5-5-5-5-5-|
D|(10)/12-12-12-12-12-12-12--5-5-5-5-5-5-5-|
A|(8 )/10-10-10-10-10-10-10--3-3-3-3-3-3-3-|
E|-----------------------------------------|
       1.Ima   mnogo    brojeva  
       2.Neki pak su    djeljivi   
E|----------------------------------------|
B|----------------------------------------|
C|-/12-12-12-12-12-12-12-12-5-5-5-5-5-5-5-|
D|-/12-12-12-12-12-12-12-12-5-5-5-5-5-5-5-|
A|-/10-10-10-10-10-10-10-10-3-3-3-3-3-3-3-|
E|----------------------------------------|
        1.Djeljivih sa       pet
        2.I sa brojkom       sest


E|----------------------------------|
B|----------------------------------|
C|--4-4-4-4-4-4-4-4-4-4-4-4-4-4-4-4-|
D|--4-4-4-4-4-4-4-4-4-4-4-4-4-4-4-4-|
A|--2-2-2-2-2-2-2-2-2-2-2-2-2-2-2-2-|
E|----------------------------------|
Sa sest


Kraj:
E|---------------|
B|------6(b6)----|
C|----5----------|
D|---------------|
A|---------------|
E|--8------------|
    ?

Mislim da je sve priblizno tocno.

Ima jedan broj
A djeljiv je sa pet
U nizu brojeva 
djeljivih sa sest
Svaki novi broj
podjeljen sa sedam
umanjen za tri
Pomnozen sa pet

To je dva,
dva, 
Dva je labud moj
Dva, dva 
Dva je tajni broj

Pomnozen sa dvanaest
Umanjen za tri
Ima jedan broj
Broj tramvajski

A to je dva,
dva,
Dva do Zitnjaka
Dva, dva
Dva do neba sad

Ima mnogo brojeva
Djeljivih sa pet
Neki pak su djeljivi
i sa brojkom sest
sa sest...

Ali dva, dva
Dva do Zitnjaka
Dvaaaaa do neba

Dva je tajni broj
Dva je labud moj
Dva, dva
Dva u dvanaest cetri

***VERZIJA 2***
Transkripcija: Wipo


UVOD: A5 C5 D5 F5
      
A5        C5                    
Ima jedan broj 
D5              F5
a djeljiv je sa pet
A5       C5            
u nizu brojeva 
D5            F5
djeljivih sa sest.
A5         C5
Svaki novi broj
D5            F5
podjeljen sa sedam
A5         C5
umanjen za tri
D5          F5
pomnozen sa pet


REFREN:

      A5
to je dva
C5
dva
D5            F5
dva je laubud moj
A5
dva 
C5
dva
D5           F5
dva je tajni broj

/* ta cetiri akorda se vrte do daljnjeg */

Pomnozen sa dvanaest
umanjen sa tri
ima jedan broj
broj tramvajski

a to je dva
dva
dva do zitnjaka
dva
dva
dva do neba saaad

G          C       
Ima mnogo brojeva
G            C
djeljivih sa pet
G            C
neki pak su djeljivi
G            C
i sa brojkom sest
      E
...sa sest

/* opet dalje idu A5 & co */

Ali dva,
dva
dva
dva do Zitnjaka
Dvaaaaaaaaaaaaaaaaa....
...do neba

dva je tajni broj
dva je labud moj

/* A CAPELA */
dva
dva
dva u dvanaest cetiri


  Eto, ovu sam pjesmu prvi puta cuo u goricama kod prijatelja, a kasnije
sam si dao truda i nabavio ju. Zanimljivo je kako svi koji ju prvi put
cuju pocnu racunati u nadi da ce dobiti taj broj, ali nakon prvih par 
stihova skuze da je besmisleno. Zivjela matematika!